ISO-10303-21;
HEADER;
FILE_DESCRIPTION(('STEP AP214'),'1');
FILE_NAME('C:/PartsXMLTools/RobotParts/Generated/STEP_SAT/CAD/Temp/0139_34_00.stp','2016-07-07T14:22:38',('TraceParts'),('TraceParts S.A.'),'Spatial InterOp 3D',' ',' ');
FILE_SCHEMA(('automotive_design'));
ENDSEC;
DATA;
#1=PRODUCT_DEFINITION_CONTEXT('',#13,'design');
#2=APPLICATION_PROTOCOL_DEFINITION('INTERNATIONAL STANDARD','automotive_design',1994,#13);
#3=PRODUCT_CATEGORY_RELATIONSHIP('NONE','NONE',#14,#15);
#4=SHAPE_DEFINITION_REPRESENTATION(#16,#17);
#5=PRODUCT_DEFINITION_CONTEXT('',#18,'design');
#6=APPLICATION_PROTOCOL_DEFINITION('INTERNATIONAL STANDARD','automotive_design',1994,#18);
#7=PRODUCT_CATEGORY_RELATIONSHIP('NONE','NONE',#19,#20);
#8=SHAPE_DEFINITION_REPRESENTATION(#21,#22);
#9= (GEOMETRIC_REPRESENTATION_CONTEXT(3)GLOBAL_UNCERTAINTY_ASSIGNED_CONTEXT((#25))GLOBAL_UNIT_ASSIGNED_CONTEXT((#27,#28,#29))REPRESENTATION_CONTEXT('NONE','WORKSPACE'));
#13=APPLICATION_CONTEXT(' ');
#14=PRODUCT_CATEGORY('part','NONE');
#15=PRODUCT_RELATED_PRODUCT_CATEGORY('detail',' ',(#31));
#16=PRODUCT_DEFINITION_SHAPE('NONE','NONE',#32);
#17=ADVANCED_BREP_SHAPE_REPRESENTATION('0139-34-00_ASM|Next assembly relationship#BAGUE-ACIER-1;BAGUE-ACIER-1',(#33,#34),#9);
#18=APPLICATION_CONTEXT(' ');
#19=PRODUCT_CATEGORY('part','NONE');
#20=PRODUCT_RELATED_PRODUCT_CATEGORY('detail',' ',(#35));
#21=PRODUCT_DEFINITION_SHAPE('NONE','NONE',#36);
#22=ADVANCED_BREP_SHAPE_REPRESENTATION('0139-34-00_ASM|Next assembly relationship#BAGUE-NITRILE-1;BAGUE-NITRILE-1',(#37,#38),#9);
#25=UNCERTAINTY_MEASURE_WITH_UNIT(LENGTH_MEASURE(1.0E-006),#27,'','');
#27= (CONVERSION_BASED_UNIT('MILLIMETRE',#41)LENGTH_UNIT()NAMED_UNIT(#44));
#28= (NAMED_UNIT(#46)PLANE_ANGLE_UNIT()SI_UNIT($,.RADIAN.));
#29= (NAMED_UNIT(#46)SOLID_ANGLE_UNIT()SI_UNIT($,.STERADIAN.));
#31=PRODUCT('0139-34-00_ASM|Next assembly relationship#BAGUE-ACIER-1;BAGUE-ACIER-1','0139-34-00_ASM|Next assembly relationship#BAGUE-ACIER-1;BAGUE-ACIER-1','PART-0139-34-00_ASM|Next assembly relationship#BAGUE-ACIER-1;BAGUE-ACIER-1-DESC',(#52));
#32=PRODUCT_DEFINITION('NONE','NONE',#53,#1);
#33=MANIFOLD_SOLID_BREP('0139-34-00_ASM|Next assembly relationship#BAGUE-ACIER-1;BAGUE-ACIER-1',#54);
#34=AXIS2_PLACEMENT_3D('',#55,#56,#57);
#35=PRODUCT('0139-34-00_ASM|Next assembly relationship#BAGUE-NITRILE-1;BAGUE-NITRILE-1','0139-34-00_ASM|Next assembly relationship#BAGUE-NITRILE-1;BAGUE-NITRILE-1','PART-0139-34-00_ASM|Next assembly relationship#BAGUE-NITRILE-1;BAGUE-NITRILE-1-DESC',(#58));
#36=PRODUCT_DEFINITION('NONE','NONE',#59,#5);
#37=MANIFOLD_SOLID_BREP('0139-34-00_ASM|Next assembly relationship#BAGUE-NITRILE-1;BAGUE-NITRILE-1',#60);
#38=AXIS2_PLACEMENT_3D('',#61,#62,#63);
#41=LENGTH_MEASURE_WITH_UNIT(LENGTH_MEASURE(1.0),#64);
#44=DIMENSIONAL_EXPONENTS(1.0,0.0,0.0,0.0,0.0,0.0,0.0);
#46=DIMENSIONAL_EXPONENTS(0.0,0.0,0.0,0.0,0.0,0.0,0.0);
#52=PRODUCT_CONTEXT('',#13,'mechanical');
#53=PRODUCT_DEFINITION_FORMATION_WITH_SPECIFIED_SOURCE(' ','NONE',#31,.NOT_KNOWN.);
#54=CLOSED_SHELL('',(#65,#66,#67,#68,#69,#70));
#55=CARTESIAN_POINT('',(0.0,0.0,0.0));
#56=DIRECTION('',(0.0,0.0,1.0));
#57=DIRECTION('',(1.0,0.0,0.0));
#58=PRODUCT_CONTEXT('',#18,'mechanical');
#59=PRODUCT_DEFINITION_FORMATION_WITH_SPECIFIED_SOURCE(' ','NONE',#35,.NOT_KNOWN.);
#60=CLOSED_SHELL('',(#71,#72,#73,#74,#75,#76,#77,#78,#79,#80,#81,#82,#83,#84));
#61=CARTESIAN_POINT('',(0.0,0.0,0.0));
#62=DIRECTION('',(0.0,0.0,1.0));
#63=DIRECTION('',(1.0,0.0,0.0));
#64= (NAMED_UNIT(#44)LENGTH_UNIT()SI_UNIT(.MILLI.,.METRE.));
#65=ADVANCED_FACE('',(#86),#87,.T.);
#66=ADVANCED_FACE('',(#88),#89,.T.);
#67=ADVANCED_FACE('',(#90,#91),#92,.F.);
#68=ADVANCED_FACE('',(#93),#94,.F.);
#69=ADVANCED_FACE('',(#95),#96,.F.);
#70=ADVANCED_FACE('',(#97,#98),#99,.T.);
#71=ADVANCED_FACE('',(#100),#101,.T.);
#72=ADVANCED_FACE('',(#102),#103,.T.);
#73=ADVANCED_FACE('',(#104),#105,.T.);
#74=ADVANCED_FACE('',(#106),#107,.T.);
#75=ADVANCED_FACE('',(#108),#109,.F.);
#76=ADVANCED_FACE('',(#110),#111,.F.);
#77=ADVANCED_FACE('',(#112,#113),#114,.F.);
#78=ADVANCED_FACE('',(#115),#116,.F.);
#79=ADVANCED_FACE('',(#117),#118,.F.);
#80=ADVANCED_FACE('',(#119,#120),#121,.T.);
#81=ADVANCED_FACE('',(#122),#123,.F.);
#82=ADVANCED_FACE('',(#124),#125,.F.);
#83=ADVANCED_FACE('',(#126),#127,.T.);
#84=ADVANCED_FACE('',(#128),#129,.T.);
#86=FACE_OUTER_BOUND('',#130,.T.);
#87=CYLINDRICAL_SURFACE('',#131,19.75);
#88=FACE_OUTER_BOUND('',#132,.T.);
#89=CYLINDRICAL_SURFACE('',#133,19.75);
#90=FACE_OUTER_BOUND('',#134,.T.);
#91=FACE_BOUND('',#135,.T.);
#92=PLANE('',#136);
#93=FACE_OUTER_BOUND('',#137,.T.);
#94=CYLINDRICAL_SURFACE('',#138,18.44);
#95=FACE_OUTER_BOUND('',#139,.T.);
#96=CYLINDRICAL_SURFACE('',#140,18.44);
#97=FACE_OUTER_BOUND('',#141,.T.);
#98=FACE_BOUND('',#142,.T.);
#99=PLANE('',#143);
#100=FACE_OUTER_BOUND('',#144,.T.);
#101=CYLINDRICAL_SURFACE('',#145,18.44);
#102=FACE_OUTER_BOUND('',#146,.T.);
#103=CYLINDRICAL_SURFACE('',#147,18.44);
#104=FACE_OUTER_BOUND('',#148,.T.);
#105=CONICAL_SURFACE('',#149,17.6925,1.34082443593606);
#106=FACE_OUTER_BOUND('',#150,.T.);
#107=CONICAL_SURFACE('',#151,17.6925,1.34082443593606);
#108=FACE_OUTER_BOUND('',#152,.T.);
#109=CYLINDRICAL_SURFACE('',#153,16.945);
#110=FACE_OUTER_BOUND('',#154,.T.);
#111=CYLINDRICAL_SURFACE('',#155,16.945);
#112=FACE_OUTER_BOUND('',#156,.T.);
#113=FACE_BOUND('',#157,.T.);
#114=PLANE('',#158);
#115=FACE_OUTER_BOUND('',#159,.T.);
#116=CYLINDRICAL_SURFACE('',#160,15.1);
#117=FACE_OUTER_BOUND('',#161,.T.);
#118=CYLINDRICAL_SURFACE('',#162,15.1);
#119=FACE_OUTER_BOUND('',#163,.T.);
#120=FACE_BOUND('',#164,.T.);
#121=PLANE('',#165);
#122=FACE_OUTER_BOUND('',#166,.T.);
#123=CYLINDRICAL_SURFACE('',#167,16.945);
#124=FACE_OUTER_BOUND('',#168,.T.);
#125=CYLINDRICAL_SURFACE('',#169,16.945);
#126=FACE_OUTER_BOUND('',#170,.T.);
#127=CONICAL_SURFACE('',#171,17.6925,1.27841928717771);
#128=FACE_OUTER_BOUND('',#172,.T.);
#129=CONICAL_SURFACE('',#173,17.6925,1.27841928717771);
#130=EDGE_LOOP('',(#174,#175,#176,#177));
#131=AXIS2_PLACEMENT_3D('',#178,#179,#180);
#132=EDGE_LOOP('',(#181,#182,#183,#184));
#133=AXIS2_PLACEMENT_3D('',#185,#186,#187);
#134=EDGE_LOOP('',(#188,#189));
#135=EDGE_LOOP('',(#190,#191));
#136=AXIS2_PLACEMENT_3D('',#192,#193,#194);
#137=EDGE_LOOP('',(#195,#196,#197,#198));
#138=AXIS2_PLACEMENT_3D('',#199,#200,#201);
#139=EDGE_LOOP('',(#202,#203,#204,#205));
#140=AXIS2_PLACEMENT_3D('',#206,#207,#208);
#141=EDGE_LOOP('',(#209,#210));
#142=EDGE_LOOP('',(#211,#212));
#143=AXIS2_PLACEMENT_3D('',#213,#214,#215);
#144=EDGE_LOOP('',(#216,#217,#218,#219));
#145=AXIS2_PLACEMENT_3D('',#220,#221,#222);
#146=EDGE_LOOP('',(#223,#224,#225,#226));
#147=AXIS2_PLACEMENT_3D('',#227,#228,#229);
#148=EDGE_LOOP('',(#230,#231,#232,#233));
#149=AXIS2_PLACEMENT_3D('',#234,#235,#236);
#150=EDGE_LOOP('',(#237,#238,#239,#240));
#151=AXIS2_PLACEMENT_3D('',#241,#242,#243);
#152=EDGE_LOOP('',(#244,#245,#246,#247));
#153=AXIS2_PLACEMENT_3D('',#248,#249,#250);
#154=EDGE_LOOP('',(#251,#252,#253,#254));
#155=AXIS2_PLACEMENT_3D('',#255,#256,#257);
#156=EDGE_LOOP('',(#258,#259));
#157=EDGE_LOOP('',(#260,#261));
#158=AXIS2_PLACEMENT_3D('',#262,#263,#264);
#159=EDGE_LOOP('',(#265,#266,#267,#268));
#160=AXIS2_PLACEMENT_3D('',#269,#270,#271);
#161=EDGE_LOOP('',(#272,#273,#274,#275));
#162=AXIS2_PLACEMENT_3D('',#276,#277,#278);
#163=EDGE_LOOP('',(#279,#280));
#164=EDGE_LOOP('',(#281,#282));
#165=AXIS2_PLACEMENT_3D('',#283,#284,#285);
#166=EDGE_LOOP('',(#286,#287,#288,#289));
#167=AXIS2_PLACEMENT_3D('',#290,#291,#292);
#168=EDGE_LOOP('',(#293,#294,#295,#296));
#169=AXIS2_PLACEMENT_3D('',#297,#298,#299);
#170=EDGE_LOOP('',(#300,#301,#302,#303));
#171=AXIS2_PLACEMENT_3D('',#304,#305,#306);
#172=EDGE_LOOP('',(#307,#308,#309,#310));
#173=AXIS2_PLACEMENT_3D('',#311,#312,#313);
#174=ORIENTED_EDGE('',*,*,#314,.T.);
#175=ORIENTED_EDGE('',*,*,#315,.F.);
#176=ORIENTED_EDGE('',*,*,#316,.F.);
#177=ORIENTED_EDGE('',*,*,#317,.T.);
#178=CARTESIAN_POINT('',(0.0,-0.99,0.0));
#179=DIRECTION('',(0.0,-1.0,0.0));
#180=DIRECTION('',(1.0,0.0,0.0));
#181=ORIENTED_EDGE('',*,*,#318,.T.);
#182=ORIENTED_EDGE('',*,*,#315,.T.);
#183=ORIENTED_EDGE('',*,*,#319,.F.);
#184=ORIENTED_EDGE('',*,*,#317,.F.);
#185=CARTESIAN_POINT('',(0.0,-0.99,0.0));
#186=DIRECTION('',(0.0,-1.0,0.0));
#187=DIRECTION('',(1.0,0.0,0.0));
#188=ORIENTED_EDGE('',*,*,#314,.F.);
#189=ORIENTED_EDGE('',*,*,#319,.T.);
#190=ORIENTED_EDGE('',*,*,#320,.F.);
#191=ORIENTED_EDGE('',*,*,#321,.T.);
#192=CARTESIAN_POINT('',(0.0,-0.9,0.0));
#193=DIRECTION('',(0.0,1.0,0.0));
#194=DIRECTION('',(1.0,0.0,-0.0));
#195=ORIENTED_EDGE('',*,*,#322,.T.);
#196=ORIENTED_EDGE('',*,*,#323,.F.);
#197=ORIENTED_EDGE('',*,*,#321,.F.);
#198=ORIENTED_EDGE('',*,*,#324,.T.);
#199=CARTESIAN_POINT('',(0.0,-0.99,0.0));
#200=DIRECTION('',(0.0,-1.0,0.0));
#201=DIRECTION('',(1.0,0.0,0.0));
#202=ORIENTED_EDGE('',*,*,#320,.T.);
#203=ORIENTED_EDGE('',*,*,#323,.T.);
#204=ORIENTED_EDGE('',*,*,#325,.F.);
#205=ORIENTED_EDGE('',*,*,#324,.F.);
#206=CARTESIAN_POINT('',(0.0,-0.99,0.0));
#207=DIRECTION('',(0.0,-1.0,0.0));
#208=DIRECTION('',(1.0,0.0,0.0));
#209=ORIENTED_EDGE('',*,*,#318,.F.);
#210=ORIENTED_EDGE('',*,*,#316,.T.);
#211=ORIENTED_EDGE('',*,*,#322,.F.);
#212=ORIENTED_EDGE('',*,*,#325,.T.);
#213=CARTESIAN_POINT('',(0.0,0.9,0.0));
#214=DIRECTION('',(0.0,1.0,0.0));
#215=DIRECTION('',(1.0,0.0,-0.0));
#216=ORIENTED_EDGE('',*,*,#326,.T.);
#217=ORIENTED_EDGE('',*,*,#327,.F.);
#218=ORIENTED_EDGE('',*,*,#328,.F.);
#219=ORIENTED_EDGE('',*,*,#329,.T.);
#220=CARTESIAN_POINT('',(0.0,-1.38,0.0));
#221=DIRECTION('',(0.0,-1.0,0.0));
#222=DIRECTION('',(1.0,0.0,0.0));
#223=ORIENTED_EDGE('',*,*,#330,.T.);
#224=ORIENTED_EDGE('',*,*,#327,.T.);
#225=ORIENTED_EDGE('',*,*,#331,.F.);
#226=ORIENTED_EDGE('',*,*,#329,.F.);
#227=CARTESIAN_POINT('',(0.0,-1.38,0.0));
#228=DIRECTION('',(0.0,-1.0,0.0));
#229=DIRECTION('',(1.0,0.0,0.0));
#230=ORIENTED_EDGE('',*,*,#331,.T.);
#231=ORIENTED_EDGE('',*,*,#332,.T.);
#232=ORIENTED_EDGE('',*,*,#333,.F.);
#233=ORIENTED_EDGE('',*,*,#334,.F.);
#234=CARTESIAN_POINT('',(0.0,-1.075,0.0));
#235=DIRECTION('',(-0.0,1.0,-0.0));
#236=DIRECTION('',(1.0,0.0,0.0));
#237=ORIENTED_EDGE('',*,*,#335,.T.);
#238=ORIENTED_EDGE('',*,*,#332,.F.);
#239=ORIENTED_EDGE('',*,*,#326,.F.);
#240=ORIENTED_EDGE('',*,*,#334,.T.);
#241=CARTESIAN_POINT('',(0.0,-1.075,0.0));
#242=DIRECTION('',(-0.0,1.0,-0.0));
#243=DIRECTION('',(1.0,0.0,0.0));
#244=ORIENTED_EDGE('',*,*,#336,.T.);
#245=ORIENTED_EDGE('',*,*,#337,.F.);
#246=ORIENTED_EDGE('',*,*,#335,.F.);
#247=ORIENTED_EDGE('',*,*,#338,.T.);
#248=CARTESIAN_POINT('',(0.0,-1.38,0.0));
#249=DIRECTION('',(0.0,-1.0,0.0));
#250=DIRECTION('',(1.0,0.0,0.0));
#251=ORIENTED_EDGE('',*,*,#333,.T.);
#252=ORIENTED_EDGE('',*,*,#337,.T.);
#253=ORIENTED_EDGE('',*,*,#339,.F.);
#254=ORIENTED_EDGE('',*,*,#338,.F.);
#255=CARTESIAN_POINT('',(0.0,-1.38,0.0));
#256=DIRECTION('',(0.0,-1.0,0.0));
#257=DIRECTION('',(1.0,0.0,0.0));
#258=ORIENTED_EDGE('',*,*,#336,.F.);
#259=ORIENTED_EDGE('',*,*,#339,.T.);
#260=ORIENTED_EDGE('',*,*,#340,.F.);
#261=ORIENTED_EDGE('',*,*,#341,.T.);
#262=CARTESIAN_POINT('',(0.0,-0.15,0.0));
#263=DIRECTION('',(0.0,1.0,0.0));
#264=DIRECTION('',(1.0,0.0,-0.0));
#265=ORIENTED_EDGE('',*,*,#342,.T.);
#266=ORIENTED_EDGE('',*,*,#343,.F.);
#267=ORIENTED_EDGE('',*,*,#341,.F.);
#268=ORIENTED_EDGE('',*,*,#344,.T.);
#269=CARTESIAN_POINT('',(0.0,-1.38,0.0));
#270=DIRECTION('',(0.0,-1.0,0.0));
#271=DIRECTION('',(1.0,0.0,0.0));
#272=ORIENTED_EDGE('',*,*,#340,.T.);
#273=ORIENTED_EDGE('',*,*,#343,.T.);
#274=ORIENTED_EDGE('',*,*,#345,.F.);
#275=ORIENTED_EDGE('',*,*,#344,.F.);
#276=CARTESIAN_POINT('',(0.0,-1.38,0.0));
#277=DIRECTION('',(0.0,-1.0,0.0));
#278=DIRECTION('',(1.0,0.0,0.0));
#279=ORIENTED_EDGE('',*,*,#346,.F.);
#280=ORIENTED_EDGE('',*,*,#347,.T.);
#281=ORIENTED_EDGE('',*,*,#342,.F.);
#282=ORIENTED_EDGE('',*,*,#345,.T.);
#283=CARTESIAN_POINT('',(0.0,0.15,0.0));
#284=DIRECTION('',(0.0,1.0,0.0));
#285=DIRECTION('',(1.0,0.0,-0.0));
#286=ORIENTED_EDGE('',*,*,#348,.T.);
#287=ORIENTED_EDGE('',*,*,#349,.F.);
#288=ORIENTED_EDGE('',*,*,#347,.F.);
#289=ORIENTED_EDGE('',*,*,#350,.T.);
#290=CARTESIAN_POINT('',(0.0,-1.38,0.0));
#291=DIRECTION('',(0.0,-1.0,0.0));
#292=DIRECTION('',(1.0,0.0,0.0));
#293=ORIENTED_EDGE('',*,*,#346,.T.);
#294=ORIENTED_EDGE('',*,*,#349,.T.);
#295=ORIENTED_EDGE('',*,*,#351,.F.);
#296=ORIENTED_EDGE('',*,*,#350,.F.);
#297=CARTESIAN_POINT('',(0.0,-1.38,0.0));
#298=DIRECTION('',(0.0,-1.0,0.0));
#299=DIRECTION('',(1.0,0.0,0.0));
#300=ORIENTED_EDGE('',*,*,#351,.T.);
#301=ORIENTED_EDGE('',*,*,#352,.T.);
#302=ORIENTED_EDGE('',*,*,#330,.F.);
#303=ORIENTED_EDGE('',*,*,#353,.F.);
#304=CARTESIAN_POINT('',(0.0,1.125,0.0));
#305=DIRECTION('',(-0.0,-1.0,0.0));
#306=DIRECTION('',(-1.0,0.0,0.0));
#307=ORIENTED_EDGE('',*,*,#328,.T.);
#308=ORIENTED_EDGE('',*,*,#352,.F.);
#309=ORIENTED_EDGE('',*,*,#348,.F.);
#310=ORIENTED_EDGE('',*,*,#353,.T.);
#311=CARTESIAN_POINT('',(0.0,1.125,0.0));
#312=DIRECTION('',(-0.0,-1.0,0.0));
#313=DIRECTION('',(-1.0,0.0,0.0));
#314=EDGE_CURVE('',#354,#355,#356,.T.);
#315=EDGE_CURVE('',#357,#355,#358,.T.);
#316=EDGE_CURVE('',#359,#357,#360,.T.);
#317=EDGE_CURVE('',#359,#354,#361,.T.);
#318=EDGE_CURVE('',#359,#357,#362,.T.);
#319=EDGE_CURVE('',#354,#355,#363,.T.);
#320=EDGE_CURVE('',#364,#365,#366,.T.);
#321=EDGE_CURVE('',#364,#365,#367,.T.);
#322=EDGE_CURVE('',#368,#369,#370,.T.);
#323=EDGE_CURVE('',#365,#369,#371,.T.);
#324=EDGE_CURVE('',#364,#368,#372,.T.);
#325=EDGE_CURVE('',#368,#369,#373,.T.);
#326=EDGE_CURVE('',#374,#375,#376,.T.);
#327=EDGE_CURVE('',#377,#375,#378,.T.);
#328=EDGE_CURVE('',#379,#377,#380,.T.);
#329=EDGE_CURVE('',#379,#374,#381,.T.);
#330=EDGE_CURVE('',#379,#377,#382,.T.);
#331=EDGE_CURVE('',#374,#375,#383,.T.);
#332=EDGE_CURVE('',#375,#384,#385,.T.);
#333=EDGE_CURVE('',#386,#384,#387,.T.);
#334=EDGE_CURVE('',#374,#386,#388,.T.);
#335=EDGE_CURVE('',#386,#384,#389,.T.);
#336=EDGE_CURVE('',#390,#391,#392,.T.);
#337=EDGE_CURVE('',#384,#391,#393,.T.);
#338=EDGE_CURVE('',#386,#390,#394,.T.);
#339=EDGE_CURVE('',#390,#391,#395,.T.);
#340=EDGE_CURVE('',#396,#397,#398,.T.);
#341=EDGE_CURVE('',#396,#397,#399,.T.);
#342=EDGE_CURVE('',#400,#401,#402,.T.);
#343=EDGE_CURVE('',#397,#401,#403,.T.);
#344=EDGE_CURVE('',#396,#400,#404,.T.);
#345=EDGE_CURVE('',#400,#401,#405,.T.);
#346=EDGE_CURVE('',#406,#407,#408,.T.);
#347=EDGE_CURVE('',#406,#407,#409,.T.);
#348=EDGE_CURVE('',#410,#411,#412,.T.);
#349=EDGE_CURVE('',#407,#411,#413,.T.);
#350=EDGE_CURVE('',#406,#410,#414,.T.);
#351=EDGE_CURVE('',#410,#411,#415,.T.);
#352=EDGE_CURVE('',#411,#377,#416,.T.);
#353=EDGE_CURVE('',#410,#379,#417,.T.);
#354=VERTEX_POINT('',#418);
#355=VERTEX_POINT('',#419);
#356=CIRCLE('',#420,19.75);
#357=VERTEX_POINT('',#421);
#358=LINE('',#422,#423);
#359=VERTEX_POINT('',#424);
#360=CIRCLE('',#425,19.75);
#361=LINE('',#426,#427);
#362=CIRCLE('',#428,19.75);
#363=CIRCLE('',#429,19.75);
#364=VERTEX_POINT('',#430);
#365=VERTEX_POINT('',#431);
#366=CIRCLE('',#432,18.44);
#367=CIRCLE('',#433,18.44);
#368=VERTEX_POINT('',#434);
#369=VERTEX_POINT('',#435);
#370=CIRCLE('',#436,18.44);
#371=LINE('',#437,#438);
#372=LINE('',#439,#440);
#373=CIRCLE('',#441,18.44);
#374=VERTEX_POINT('',#442);
#375=VERTEX_POINT('',#443);
#376=CIRCLE('',#444,18.44);
#377=VERTEX_POINT('',#445);
#378=LINE('',#446,#447);
#379=VERTEX_POINT('',#448);
#380=CIRCLE('',#449,18.44);
#381=LINE('',#450,#451);
#382=CIRCLE('',#452,18.44);
#383=CIRCLE('',#453,18.44);
#384=VERTEX_POINT('',#454);
#385=LINE('',#455,#456);
#386=VERTEX_POINT('',#457);
#387=CIRCLE('',#458,16.945);
#388=LINE('',#459,#460);
#389=CIRCLE('',#461,16.945);
#390=VERTEX_POINT('',#462);
#391=VERTEX_POINT('',#463);
#392=CIRCLE('',#464,16.945);
#393=LINE('',#465,#466);
#394=LINE('',#467,#468);
#395=CIRCLE('',#469,16.945);
#396=VERTEX_POINT('',#470);
#397=VERTEX_POINT('',#471);
#398=CIRCLE('',#472,15.1);
#399=CIRCLE('',#473,15.1);
#400=VERTEX_POINT('',#474);
#401=VERTEX_POINT('',#475);
#402=CIRCLE('',#476,15.1);
#403=LINE('',#477,#478);
#404=LINE('',#479,#480);
#405=CIRCLE('',#481,15.1);
#406=VERTEX_POINT('',#482);
#407=VERTEX_POINT('',#483);
#408=CIRCLE('',#484,16.945);
#409=CIRCLE('',#485,16.945);
#410=VERTEX_POINT('',#486);
#411=VERTEX_POINT('',#487);
#412=CIRCLE('',#488,16.945);
#413=LINE('',#489,#490);
#414=LINE('',#491,#492);
#415=CIRCLE('',#493,16.945);
#416=LINE('',#494,#495);
#417=LINE('',#496,#497);
#418=CARTESIAN_POINT('',(-19.75,-0.9,0.0));
#419=CARTESIAN_POINT('',(19.75,-0.9,0.0));
#420=AXIS2_PLACEMENT_3D('',#498,#499,#500);
#421=CARTESIAN_POINT('',(19.75,0.9,0.0));
#422=CARTESIAN_POINT('',(19.75,0.9,0.0));
#423=VECTOR('',#501,1.8);
#424=CARTESIAN_POINT('',(-19.75,0.9,0.0));
#425=AXIS2_PLACEMENT_3D('',#502,#503,#504);
#426=CARTESIAN_POINT('',(-19.75,0.9,0.0));
#427=VECTOR('',#505,1.8);
#428=AXIS2_PLACEMENT_3D('',#506,#507,#508);
#429=AXIS2_PLACEMENT_3D('',#509,#510,#511);
#430=CARTESIAN_POINT('',(-18.44,-0.9,0.0));
#431=CARTESIAN_POINT('',(18.44,-0.9,0.0));
#432=AXIS2_PLACEMENT_3D('',#512,#513,#514);
#433=AXIS2_PLACEMENT_3D('',#515,#516,#517);
#434=CARTESIAN_POINT('',(-18.44,0.9,0.0));
#435=CARTESIAN_POINT('',(18.44,0.9,0.0));
#436=AXIS2_PLACEMENT_3D('',#518,#519,#520);
#437=CARTESIAN_POINT('',(18.44,-0.9,0.0));
#438=VECTOR('',#521,1.8);
#439=CARTESIAN_POINT('',(-18.44,-0.9,0.0));
#440=VECTOR('',#522,1.8);
#441=AXIS2_PLACEMENT_3D('',#523,#524,#525);
#442=CARTESIAN_POINT('',(-18.44,-0.9,0.0));
#443=CARTESIAN_POINT('',(18.44,-0.9,0.0));
#444=AXIS2_PLACEMENT_3D('',#526,#527,#528);
#445=CARTESIAN_POINT('',(18.44,0.9,0.0));
#446=CARTESIAN_POINT('',(18.44,0.9,0.0));
#447=VECTOR('',#529,1.8);
#448=CARTESIAN_POINT('',(-18.44,0.9,0.0));
#449=AXIS2_PLACEMENT_3D('',#530,#531,#532);
#450=CARTESIAN_POINT('',(-18.44,0.9,0.0));
#451=VECTOR('',#533,1.8);
#452=AXIS2_PLACEMENT_3D('',#534,#535,#536);
#453=AXIS2_PLACEMENT_3D('',#537,#538,#539);
#454=CARTESIAN_POINT('',(16.945,-1.25,0.0));
#455=CARTESIAN_POINT('',(18.44,-0.9,0.0));
#456=VECTOR('',#540,1.535423394377);
#457=CARTESIAN_POINT('',(-16.945,-1.25,0.0));
#458=AXIS2_PLACEMENT_3D('',#541,#542,#543);
#459=CARTESIAN_POINT('',(-18.44,-0.9,0.0));
#460=VECTOR('',#544,1.535423394377);
#461=AXIS2_PLACEMENT_3D('',#545,#546,#547);
#462=CARTESIAN_POINT('',(-16.945,-0.15,0.0));
#463=CARTESIAN_POINT('',(16.945,-0.15,0.0));
#464=AXIS2_PLACEMENT_3D('',#548,#549,#550);
#465=CARTESIAN_POINT('',(16.945,-1.25,0.0));
#466=VECTOR('',#551,1.1);
#467=CARTESIAN_POINT('',(-16.945,-1.25,0.0));
#468=VECTOR('',#552,1.1);
#469=AXIS2_PLACEMENT_3D('',#553,#554,#555);
#470=CARTESIAN_POINT('',(-15.1,-0.15,0.0));
#471=CARTESIAN_POINT('',(15.1,-0.15,0.0));
#472=AXIS2_PLACEMENT_3D('',#556,#557,#558);
#473=AXIS2_PLACEMENT_3D('',#559,#560,#561);
#474=CARTESIAN_POINT('',(-15.1,0.15,0.0));
#475=CARTESIAN_POINT('',(15.1,0.15,0.0));
#476=AXIS2_PLACEMENT_3D('',#562,#563,#564);
#477=CARTESIAN_POINT('',(15.1,-0.15,0.0));
#478=VECTOR('',#565,0.3);
#479=CARTESIAN_POINT('',(-15.1,-0.15,0.0));
#480=VECTOR('',#566,0.3);
#481=AXIS2_PLACEMENT_3D('',#567,#568,#569);
#482=CARTESIAN_POINT('',(-16.945,0.15,0.0));
#483=CARTESIAN_POINT('',(16.945,0.15,0.0));
#484=AXIS2_PLACEMENT_3D('',#570,#571,#572);
#485=AXIS2_PLACEMENT_3D('',#573,#574,#575);
#486=CARTESIAN_POINT('',(-16.945,1.35,0.0));
#487=CARTESIAN_POINT('',(16.945,1.35,0.0));
#488=AXIS2_PLACEMENT_3D('',#576,#577,#578);
#489=CARTESIAN_POINT('',(16.945,0.15,0.0));
#490=VECTOR('',#579,1.2);
#491=CARTESIAN_POINT('',(-16.945,0.15,0.0));
#492=VECTOR('',#580,1.2);
#493=AXIS2_PLACEMENT_3D('',#581,#582,#583);
#494=CARTESIAN_POINT('',(16.945,1.35,0.0));
#495=VECTOR('',#584,1.561257505987);
#496=CARTESIAN_POINT('',(-16.945,1.35,0.0));
#497=VECTOR('',#585,1.561257505987);
#498=CARTESIAN_POINT('',(0.0,-0.9,0.0));
#499=DIRECTION('',(0.0,1.0,0.0));
#500=DIRECTION('',(-1.0,0.0,0.0));
#501=DIRECTION('',(0.0,-1.0,0.0));
#502=CARTESIAN_POINT('',(0.0,0.9,0.0));
#503=DIRECTION('',(0.0,1.0,0.0));
#504=DIRECTION('',(-1.0,0.0,0.0));
#505=DIRECTION('',(0.0,-1.0,0.0));
#506=CARTESIAN_POINT('',(0.0,0.9,0.0));
#507=DIRECTION('',(0.0,-1.0,0.0));
#508=DIRECTION('',(-1.0,0.0,0.0));
#509=CARTESIAN_POINT('',(0.0,-0.9,0.0));
#510=DIRECTION('',(0.0,-1.0,0.0));
#511=DIRECTION('',(-1.0,0.0,0.0));
#512=CARTESIAN_POINT('',(0.0,-0.9,0.0));
#513=DIRECTION('',(0.0,-1.0,0.0));
#514=DIRECTION('',(-1.0,0.0,0.0));
#515=CARTESIAN_POINT('',(0.0,-0.9,0.0));
#516=DIRECTION('',(0.0,1.0,0.0));
#517=DIRECTION('',(-1.0,0.0,0.0));
#518=CARTESIAN_POINT('',(0.0,0.9,0.0));
#519=DIRECTION('',(0.0,1.0,0.0));
#520=DIRECTION('',(-1.0,0.0,0.0));
#521=DIRECTION('',(0.0,1.0,0.0));
#522=DIRECTION('',(0.0,1.0,0.0));
#523=CARTESIAN_POINT('',(0.0,0.9,0.0));
#524=DIRECTION('',(0.0,-1.0,0.0));
#525=DIRECTION('',(-1.0,0.0,0.0));
#526=CARTESIAN_POINT('',(0.0,-0.9,0.0));
#527=DIRECTION('',(0.0,1.0,0.0));
#528=DIRECTION('',(-1.0,0.0,0.0));
#529=DIRECTION('',(0.0,-1.0,0.0));
#530=CARTESIAN_POINT('',(0.0,0.9,0.0));
#531=DIRECTION('',(0.0,1.0,0.0));
#532=DIRECTION('',(-1.0,0.0,0.0));
#533=DIRECTION('',(0.0,-1.0,0.0));
#534=CARTESIAN_POINT('',(0.0,0.9,0.0));
#535=DIRECTION('',(0.0,-1.0,0.0));
#536=DIRECTION('',(-1.0,0.0,0.0));
#537=CARTESIAN_POINT('',(0.0,-0.9,0.0));
#538=DIRECTION('',(0.0,-1.0,0.0));
#539=DIRECTION('',(-1.0,0.0,0.0));
#540=DIRECTION('',(-0.973672802873147,-0.227950154518811,0.0));
#541=CARTESIAN_POINT('',(0.0,-1.25,0.0));
#542=DIRECTION('',(0.0,-1.0,0.0));
#543=DIRECTION('',(-1.0,0.0,0.0));
#544=DIRECTION('',(0.973672802873147,-0.227950154518811,0.0));
#545=CARTESIAN_POINT('',(0.0,-1.25,0.0));
#546=DIRECTION('',(0.0,1.0,0.0));
#547=DIRECTION('',(-1.0,0.0,0.0));
#548=CARTESIAN_POINT('',(0.0,-0.15,0.0));
#549=DIRECTION('',(0.0,1.0,0.0));
#550=DIRECTION('',(-1.0,0.0,0.0));
#551=DIRECTION('',(0.0,1.0,0.0));
#552=DIRECTION('',(0.0,1.0,0.0));
#553=CARTESIAN_POINT('',(0.0,-0.15,0.0));
#554=DIRECTION('',(0.0,-1.0,0.0));
#555=DIRECTION('',(-1.0,0.0,0.0));
#556=CARTESIAN_POINT('',(0.0,-0.15,0.0));
#557=DIRECTION('',(0.0,-1.0,0.0));
#558=DIRECTION('',(-1.0,0.0,0.0));
#559=CARTESIAN_POINT('',(0.0,-0.15,0.0));
#560=DIRECTION('',(0.0,1.0,0.0));
#561=DIRECTION('',(-1.0,0.0,0.0));
#562=CARTESIAN_POINT('',(0.0,0.15,0.0));
#563=DIRECTION('',(0.0,1.0,0.0));
#564=DIRECTION('',(-1.0,0.0,0.0));
#565=DIRECTION('',(0.0,1.0,0.0));
#566=DIRECTION('',(0.0,1.0,0.0));
#567=CARTESIAN_POINT('',(0.0,0.15,0.0));
#568=DIRECTION('',(0.0,-1.0,0.0));
#569=DIRECTION('',(-1.0,0.0,0.0));
#570=CARTESIAN_POINT('',(0.0,0.15,0.0));
#571=DIRECTION('',(0.0,-1.0,0.0));
#572=DIRECTION('',(-1.0,0.0,0.0));
#573=CARTESIAN_POINT('',(0.0,0.15,0.0));
#574=DIRECTION('',(0.0,1.0,0.0));
#575=DIRECTION('',(-1.0,0.0,0.0));
#576=CARTESIAN_POINT('',(0.0,1.35,0.0));
#577=DIRECTION('',(0.0,1.0,0.0));
#578=DIRECTION('',(-1.0,0.0,0.0));
#579=DIRECTION('',(0.0,1.0,0.0));
#580=DIRECTION('',(0.0,1.0,0.0));
#581=CARTESIAN_POINT('',(0.0,1.35,0.0));
#582=DIRECTION('',(0.0,-1.0,0.0));
#583=DIRECTION('',(-1.0,0.0,0.0));
#584=DIRECTION('',(0.957561449195477,-0.288229198754493,0.0));
#585=DIRECTION('',(-0.957561449195477,-0.288229198754493,0.0));
ENDSEC;
END-ISO-10303-21;
