ISO-10303-21;
HEADER;
/****************************************************************
 * Generated by software with PDElib inside                    *
 * PDElib Version v51a, created Wed 11/30/2011                  *
 * ITI Transcendata (http://www.transcendata.com/)              *
 ****************************************************************/
FILE_DESCRIPTION((''),'2;1');
FILE_NAME('J:\\3D Zeichnungen_step\\Serie 21\\21sftf08mxn.stp','2014-05-14T14:32:35',('IA176480'),(''),'Autodesk Inventor 2013','Autodesk Inventor 2013','');
FILE_SCHEMA(('AUTOMOTIVE_DESIGN { 1 0 10303 214 1 1 1 1 }'));
ENDSEC;
DATA;
#5=APPLICATION_CONTEXT('automotive design');
#6=APPLICATION_PROTOCOL_DEFINITION('International Standard','automotive_design',2001,#5);
#7=PRODUCT_CONTEXT('',#5,'mechanical');
#8=PRODUCT('D107136','D107136',$,(#7));
#9=PRODUCT_RELATED_PRODUCT_CATEGORY('part',$,(#8));
#10=PRODUCT_DEFINITION_FORMATION('',$,#8);
#11=PRODUCT_DEFINITION_CONTEXT('part definition',#5,'design');
#12=PRODUCT_DEFINITION('',$,#10,#11);
#18=(NAMED_UNIT(*)PLANE_ANGLE_UNIT()SI_UNIT($,.RADIAN.));
#19=DIMENSIONAL_EXPONENTS(0.0,0.0,0.0,0.0,0.0,0.0,0.0);
#20=PLANE_ANGLE_MEASURE_WITH_UNIT(PLANE_ANGLE_MEASURE(0.0174532925),#18);
#24=(CONVERSION_BASED_UNIT('DEGREE',#20)NAMED_UNIT(#19)PLANE_ANGLE_UNIT());
#28=(NAMED_UNIT(*)SI_UNIT($,.STERADIAN.)SOLID_ANGLE_UNIT());
#32=(LENGTH_UNIT()NAMED_UNIT(*)SI_UNIT(.MILLI.,.METRE.));
#34=UNCERTAINTY_MEASURE_WITH_UNIT(LENGTH_MEASURE(0.01),#32,'DISTANCE_ACCURACY_VALUE','');
#36=(GEOMETRIC_REPRESENTATION_CONTEXT(3)GLOBAL_UNCERTAINTY_ASSIGNED_CONTEXT((#34))GLOBAL_UNIT_ASSIGNED_CONTEXT((#24,#28,#32))REPRESENTATION_CONTEXT('None','None'));
#37=AXIS2_PLACEMENT_3D('',#38,#39,#40);
#38=CARTESIAN_POINT('',(0.0,0.0,0.0));
#39=DIRECTION('',(0.0,0.0,1.0));
#40=DIRECTION('',(1.0,0.0,0.0));
#41=SHAPE_REPRESENTATION('',(#37),#36);
#42=PRODUCT_DEFINITION_SHAPE('','',#12);
#43=SHAPE_DEFINITION_REPRESENTATION(#42,#41);
#49=(NAMED_UNIT(*)PLANE_ANGLE_UNIT()SI_UNIT($,.RADIAN.));
#50=DIMENSIONAL_EXPONENTS(0.0,0.0,0.0,0.0,0.0,0.0,0.0);
#51=PLANE_ANGLE_MEASURE_WITH_UNIT(PLANE_ANGLE_MEASURE(0.0174532925),#49);
#55=(CONVERSION_BASED_UNIT('DEGREE',#51)NAMED_UNIT(#50)PLANE_ANGLE_UNIT());
#59=(NAMED_UNIT(*)SI_UNIT($,.STERADIAN.)SOLID_ANGLE_UNIT());
#63=(LENGTH_UNIT()NAMED_UNIT(*)SI_UNIT(.MILLI.,.METRE.));
#65=UNCERTAINTY_MEASURE_WITH_UNIT(LENGTH_MEASURE(0.000001),#63,'DISTANCE_ACCURACY_VALUE','');
#67=(GEOMETRIC_REPRESENTATION_CONTEXT(3)GLOBAL_UNCERTAINTY_ASSIGNED_CONTEXT((#65))GLOBAL_UNIT_ASSIGNED_CONTEXT((#55,#59,#63))REPRESENTATION_CONTEXT('','3D'));
#68=CARTESIAN_POINT('',(31.700000000000003,0.0,0.0));
#69=DIRECTION('',(1.0,0.0,0.0));
#70=DIRECTION('',(0.0,0.0,-1.0));
#71=AXIS2_PLACEMENT_3D('',#68,#69,#70);
#72=TOROIDAL_SURFACE('',#71,3.08451434359244,0.3);
#73=CARTESIAN_POINT('',(31.77764571353076,3.374292091479162,0.0));
#74=VERTEX_POINT('',#73);
#75=CARTESIAN_POINT('',(31.77764571353076,0.0,-4.132316E-016));
#76=DIRECTION('',(1.0,0.0,0.0));
#77=DIRECTION('',(0.0,-1.0,0.0));
#78=AXIS2_PLACEMENT_3D('',#75,#76,#77);
#79=CIRCLE('',#78,3.374292091479162);
#80=EDGE_CURVE('',#74,#74,#79,.T.);
#81=ORIENTED_EDGE('',*,*,#80,.T.);
#82=EDGE_LOOP('',(#81));
#83=FACE_OUTER_BOUND('',#82,.T.);
#84=CARTESIAN_POINT('',(32.0,3.08451434359244,-7.554881E-016));
#85=VERTEX_POINT('',#84);
#86=CARTESIAN_POINT('',(32.0,0.0,0.0));
#87=DIRECTION('',(-1.0,0.0,0.0));
#88=DIRECTION('',(0.0,-1.0,0.0));
#89=AXIS2_PLACEMENT_3D('',#86,#87,#88);
#90=CIRCLE('',#89,3.08451434359244);
#91=EDGE_CURVE('',#85,#85,#90,.T.);
#92=ORIENTED_EDGE('',*,*,#91,.T.);
#93=EDGE_LOOP('',(#92));
#94=FACE_BOUND('',#93,.T.);
#95=ADVANCED_FACE('',(#83,#94),#72,.T.);
#96=CARTESIAN_POINT('',(29.75,0.0,0.0));
#97=DIRECTION('',(-1.0,0.0,0.0));
#98=DIRECTION('',(0.0,1.0,0.0));
#99=AXIS2_PLACEMENT_3D('',#96,#97,#98);
#100=CONICAL_SURFACE('',#99,3.917598122956155,14.999999999999979);
#101=CARTESIAN_POINT('',(27.68882285676538,-4.46988887394336,-5.474035E-016));
#102=VERTEX_POINT('',#101);
#103=CARTESIAN_POINT('',(27.68882285676538,0.0,0.0));
#104=DIRECTION('',(1.0,0.0,0.0));
#105=DIRECTION('',(0.0,1.0,0.0));
#106=AXIS2_PLACEMENT_3D('',#103,#104,#105);
#107=CIRCLE('',#106,4.46988887394336);
#108=EDGE_CURVE('',#102,#102,#107,.T.);
#109=ORIENTED_EDGE('',*,*,#108,.T.);
#110=EDGE_LOOP('',(#109));
#111=FACE_OUTER_BOUND('',#110,.T.);
#112=ORIENTED_EDGE('',*,*,#80,.F.);
#113=EDGE_LOOP('',(#112));
#114=FACE_BOUND('',#113,.T.);
#115=ADVANCED_FACE('',(#111,#114),#100,.T.);
#116=CARTESIAN_POINT('',(32.0,2.894856219993068,0.0));
#117=DIRECTION('',(1.0,0.0,0.0));
#118=DIRECTION('',(0.0,0.0,-1.0));
#119=AXIS2_PLACEMENT_3D('',#116,#117,#118);
#120=PLANE('',#119);
#121=ORIENTED_EDGE('',*,*,#91,.F.);
#122=EDGE_LOOP('',(#121));
#123=FACE_OUTER_BOUND('',#122,.T.);
#124=CARTESIAN_POINT('',(32.0,2.475000000000008,0.0));
#125=VERTEX_POINT('',#124);
#126=CARTESIAN_POINT('',(32.0,0.0,0.0));
#127=DIRECTION('',(1.0,0.0,0.0));
#128=DIRECTION('',(0.0,1.0,0.0));
#129=AXIS2_PLACEMENT_3D('',#126,#127,#128);
#130=CIRCLE('',#129,2.475000000000008);
#131=EDGE_CURVE('',#125,#125,#130,.T.);
#132=ORIENTED_EDGE('',*,*,#131,.F.);
#133=EDGE_LOOP('',(#132));
#134=FACE_BOUND('',#133,.T.);
#135=ADVANCED_FACE('',(#123,#134),#120,.T.);
#136=CARTESIAN_POINT('',(15.4,0.0,0.0));
#137=DIRECTION('',(1.0,0.0,0.0));
#138=DIRECTION('',(0.0,0.0,-1.0));
#139=AXIS2_PLACEMENT_3D('',#136,#137,#138);
#140=TOROIDAL_SURFACE('',#139,4.4,0.4);
#141=CARTESIAN_POINT('',(15.0,4.4,0.0));
#142=VERTEX_POINT('',#141);
#143=CARTESIAN_POINT('',(15.0,0.0,0.0));
#144=DIRECTION('',(1.0,0.0,0.0));
#145=DIRECTION('',(0.0,-1.0,0.0));
#146=AXIS2_PLACEMENT_3D('',#143,#144,#145);
#147=CIRCLE('',#146,4.4);
#148=EDGE_CURVE('',#142,#142,#147,.T.);
#149=ORIENTED_EDGE('',*,*,#148,.T.);
#150=EDGE_LOOP('',(#149));
#151=FACE_OUTER_BOUND('',#150,.T.);
#152=CARTESIAN_POINT('',(15.4,4.0,-9.797174E-016));
#153=VERTEX_POINT('',#152);
#154=CARTESIAN_POINT('',(15.4,0.0,0.0));
#155=DIRECTION('',(-1.0,0.0,0.0));
#156=DIRECTION('',(0.0,-1.0,0.0));
#157=AXIS2_PLACEMENT_3D('',#154,#155,#156);
#158=CIRCLE('',#157,4.0);
#159=EDGE_CURVE('',#153,#153,#158,.T.);
#160=ORIENTED_EDGE('',*,*,#159,.T.);
#161=EDGE_LOOP('',(#160));
#162=FACE_BOUND('',#161,.T.);
#163=ADVANCED_FACE('',(#151,#162),#140,.F.);
#164=CARTESIAN_POINT('',(15.0,4.249999999999999,0.0));
#165=DIRECTION('',(1.0,0.0,0.0));
#166=DIRECTION('',(0.0,0.0,-1.0));
#167=AXIS2_PLACEMENT_3D('',#164,#165,#166);
#168=PLANE('',#167);
#169=CARTESIAN_POINT('',(15.0,4.500000000000001,0.0));
#170=VERTEX_POINT('',#169);
#171=CARTESIAN_POINT('',(15.0,0.0,0.0));
#172=DIRECTION('',(1.0,0.0,0.0));
#173=DIRECTION('',(0.0,1.0,0.0));
#174=AXIS2_PLACEMENT_3D('',#171,#172,#173);
#175=CIRCLE('',#174,4.500000000000001);
#176=EDGE_CURVE('',#170,#170,#175,.T.);
#177=ORIENTED_EDGE('',*,*,#176,.T.);
#178=EDGE_LOOP('',(#177));
#179=FACE_OUTER_BOUND('',#178,.T.);
#180=ORIENTED_EDGE('',*,*,#148,.F.);
#181=EDGE_LOOP('',(#180));
#182=FACE_BOUND('',#181,.T.);
#183=ADVANCED_FACE('',(#179,#182),#168,.T.);
#184=CARTESIAN_POINT('',(19.0,0.0,0.0));
#185=DIRECTION('',(1.0,0.0,0.0));
#186=DIRECTION('',(0.0,1.0,0.0));
#187=AXIS2_PLACEMENT_3D('',#184,#185,#186);
#188=CYLINDRICAL_SURFACE('',#187,4.0);
#189=CARTESIAN_POINT('',(23.000000000000004,4.000000000000003,0.0));
#190=VERTEX_POINT('',#189);
#191=CARTESIAN_POINT('',(23.000000000000004,0.0,0.0));
#192=DIRECTION('',(1.0,0.0,0.0));
#193=DIRECTION('',(0.0,1.0,0.0));
#194=AXIS2_PLACEMENT_3D('',#191,#192,#193);
#195=CIRCLE('',#194,4.000000000000003);
#196=EDGE_CURVE('',#190,#190,#195,.T.);
#197=ORIENTED_EDGE('',*,*,#196,.F.);
#198=EDGE_LOOP('',(#197));
#199=FACE_OUTER_BOUND('',#198,.T.);
#200=ORIENTED_EDGE('',*,*,#159,.F.);
#201=EDGE_LOOP('',(#200));
#202=FACE_BOUND('',#201,.T.);
#203=ADVANCED_FACE('',(#199,#202),#188,.T.);
#204=CARTESIAN_POINT('',(5.689213562373094,0.0,0.0));
#205=DIRECTION('',(1.0,0.0,0.0));
#206=DIRECTION('',(0.0,0.0,-1.0));
#207=AXIS2_PLACEMENT_3D('',#204,#205,#206);
#208=TOROIDAL_SURFACE('',#207,4.325,1.0);
#209=CARTESIAN_POINT('',(4.982106781186547,3.617893218813451,-1.232595E-031));
#210=VERTEX_POINT('',#209);
#211=CARTESIAN_POINT('',(4.982106781186547,0.0,-4.430641E-016));
#212=DIRECTION('',(1.0,0.0,0.0));
#213=DIRECTION('',(0.0,-1.0,0.0));
#214=AXIS2_PLACEMENT_3D('',#211,#212,#213);
#215=CIRCLE('',#214,3.617893218813451);
#216=EDGE_CURVE('',#210,#210,#215,.T.);
#217=ORIENTED_EDGE('',*,*,#216,.T.);
#218=EDGE_LOOP('',(#217));
#219=FACE_OUTER_BOUND('',#218,.T.);
#220=CARTESIAN_POINT('',(5.689213562373094,3.325,-8.143901E-016));
#221=VERTEX_POINT('',#220);
#222=CARTESIAN_POINT('',(5.689213562373094,0.0,0.0));
#223=DIRECTION('',(-1.0,0.0,0.0));
#224=DIRECTION('',(0.0,-1.0,0.0));
#225=AXIS2_PLACEMENT_3D('',#222,#223,#224);
#226=CIRCLE('',#225,3.325);
#227=EDGE_CURVE('',#221,#221,#226,.T.);
#228=ORIENTED_EDGE('',*,*,#227,.T.);
#229=EDGE_LOOP('',(#228));
#230=FACE_BOUND('',#229,.T.);
#231=ADVANCED_FACE('',(#219,#230),#208,.F.);
#232=CARTESIAN_POINT('',(6.225000000000001,0.0,0.0));
#233=DIRECTION('',(1.0,0.0,0.0));
#234=DIRECTION('',(0.0,1.0,0.0));
#235=AXIS2_PLACEMENT_3D('',#232,#233,#234);
#236=CYLINDRICAL_SURFACE('',#235,3.325);
#237=CARTESIAN_POINT('',(6.760786437626905,3.325,0.0));
#238=VERTEX_POINT('',#237);
#239=CARTESIAN_POINT('',(6.760786437626905,0.0,0.0));
#240=DIRECTION('',(1.0,0.0,0.0));
#241=DIRECTION('',(0.0,-1.0,0.0));
#242=AXIS2_PLACEMENT_3D('',#239,#240,#241);
#243=CIRCLE('',#242,3.325);
#244=EDGE_CURVE('',#238,#238,#243,.T.);
#245=ORIENTED_EDGE('',*,*,#244,.F.);
#246=EDGE_LOOP('',(#245));
#247=FACE_OUTER_BOUND('',#246,.T.);
#248=ORIENTED_EDGE('',*,*,#227,.F.);
#249=EDGE_LOOP('',(#248));
#250=FACE_BOUND('',#249,.T.);
#251=ADVANCED_FACE('',(#247,#250),#236,.T.);
#252=CARTESIAN_POINT('',(4.687499999999999,0.0,0.0));
#253=DIRECTION('',(-1.0,0.0,0.0));
#254=DIRECTION('',(0.0,1.0,0.0));
#255=AXIS2_PLACEMENT_3D('',#252,#253,#254);
#256=CONICAL_SURFACE('',#255,3.9125,44.999999999999979);
#257=CARTESIAN_POINT('',(4.099999999999999,4.5,0.0));
#258=VERTEX_POINT('',#257);
#259=CARTESIAN_POINT('',(4.099999999999999,0.0,0.0));
#260=DIRECTION('',(1.0,0.0,0.0));
#261=DIRECTION('',(0.0,1.0,0.0));
#262=AXIS2_PLACEMENT_3D('',#259,#260,#261);
#263=CIRCLE('',#262,4.5);
#264=EDGE_CURVE('',#258,#258,#263,.T.);
#265=ORIENTED_EDGE('',*,*,#264,.T.);
#266=EDGE_LOOP('',(#265));
#267=FACE_OUTER_BOUND('',#266,.T.);
#268=ORIENTED_EDGE('',*,*,#216,.F.);
#269=EDGE_LOOP('',(#268));
#270=FACE_BOUND('',#269,.T.);
#271=ADVANCED_FACE('',(#267,#270),#256,.T.);
#272=CARTESIAN_POINT('',(6.760786437626905,0.0,0.0));
#273=DIRECTION('',(1.0,0.0,0.0));
#274=DIRECTION('',(0.0,0.0,-1.0));
#275=AXIS2_PLACEMENT_3D('',#272,#273,#274);
#276=TOROIDAL_SURFACE('',#275,4.325,1.0);
#277=ORIENTED_EDGE('',*,*,#244,.T.);
#278=EDGE_LOOP('',(#277));
#279=FACE_OUTER_BOUND('',#278,.T.);
#280=CARTESIAN_POINT('',(7.467893218813453,3.617893218813453,-8.861283E-016));
#281=VERTEX_POINT('',#280);
#282=CARTESIAN_POINT('',(7.467893218813453,0.0,-4.430641E-016));
#283=DIRECTION('',(-1.0,0.0,0.0));
#284=DIRECTION('',(0.0,-1.0,0.0));
#285=AXIS2_PLACEMENT_3D('',#282,#283,#284);
#286=CIRCLE('',#285,3.617893218813453);
#287=EDGE_CURVE('',#281,#281,#286,.T.);
#288=ORIENTED_EDGE('',*,*,#287,.T.);
#289=EDGE_LOOP('',(#288));
#290=FACE_BOUND('',#289,.T.);
#291=ADVANCED_FACE('',(#279,#290),#276,.F.);
#292=CARTESIAN_POINT('',(7.762499999999999,0.0,0.0));
#293=DIRECTION('',(1.0,0.0,0.0));
#294=DIRECTION('',(0.0,1.0,0.0));
#295=AXIS2_PLACEMENT_3D('',#292,#293,#294);
#296=CONICAL_SURFACE('',#295,3.9125,45.000000000000028);
#297=CARTESIAN_POINT('',(8.349999999999998,4.499999999999999,0.0));
#298=VERTEX_POINT('',#297);
#299=CARTESIAN_POINT('',(8.349999999999998,0.0,0.0));
#300=DIRECTION('',(1.0,0.0,0.0));
#301=DIRECTION('',(0.0,1.0,0.0));
#302=AXIS2_PLACEMENT_3D('',#299,#300,#301);
#303=CIRCLE('',#302,4.499999999999999);
#304=EDGE_CURVE('',#298,#298,#303,.T.);
#305=ORIENTED_EDGE('',*,*,#304,.F.);
#306=EDGE_LOOP('',(#305));
#307=FACE_OUTER_BOUND('',#306,.T.);
#308=ORIENTED_EDGE('',*,*,#287,.F.);
#309=EDGE_LOOP('',(#308));
#310=FACE_BOUND('',#309,.T.);
#311=ADVANCED_FACE('',(#307,#310),#296,.T.);
#312=CARTESIAN_POINT('',(0.6,0.0,0.0));
#313=DIRECTION('',(1.0,0.0,0.0));
#314=DIRECTION('',(0.0,0.0,-1.0));
#315=AXIS2_PLACEMENT_3D('',#312,#313,#314);
#316=TOROIDAL_SURFACE('',#315,3.449999999999998,0.6);
#317=CARTESIAN_POINT('',(-3.469447E-016,3.449999999999998,0.0));
#318=VERTEX_POINT('',#317);
#319=CARTESIAN_POINT('',(-3.469447E-016,0.0,0.0));
#320=DIRECTION('',(1.0,0.0,0.0));
#321=DIRECTION('',(0.0,-1.0,0.0));
#322=AXIS2_PLACEMENT_3D('',#319,#320,#321);
#323=CIRCLE('',#322,3.449999999999998);
#324=EDGE_CURVE('',#318,#318,#323,.T.);
#325=ORIENTED_EDGE('',*,*,#324,.T.);
#326=EDGE_LOOP('',(#325));
#327=FACE_OUTER_BOUND('',#326,.T.);
#328=CARTESIAN_POINT('',(0.6,4.049999999999998,-9.919639E-016));
#329=VERTEX_POINT('',#328);
#330=CARTESIAN_POINT('',(0.6,0.0,0.0));
#331=DIRECTION('',(-1.0,0.0,0.0));
#332=DIRECTION('',(0.0,-1.0,0.0));
#333=AXIS2_PLACEMENT_3D('',#330,#331,#332);
#334=CIRCLE('',#333,4.049999999999998);
#335=EDGE_CURVE('',#329,#329,#334,.T.);
#336=ORIENTED_EDGE('',*,*,#335,.T.);
#337=EDGE_LOOP('',(#336));
#338=FACE_BOUND('',#337,.T.);
#339=ADVANCED_FACE('',(#327,#338),#316,.T.);
#340=CARTESIAN_POINT('',(1.325,0.0,0.0));
#341=DIRECTION('',(1.0,0.0,0.0));
#342=DIRECTION('',(0.0,1.0,0.0));
#343=AXIS2_PLACEMENT_3D('',#340,#341,#342);
#344=CYLINDRICAL_SURFACE('',#343,4.049999999999998);
#345=CARTESIAN_POINT('',(2.65,4.049999999999998,0.0));
#346=VERTEX_POINT('',#345);
#347=CARTESIAN_POINT('',(2.65,0.0,0.0));
#348=DIRECTION('',(1.0,0.0,0.0));
#349=DIRECTION('',(0.0,1.0,0.0));
#350=AXIS2_PLACEMENT_3D('',#347,#348,#349);
#351=CIRCLE('',#350,4.049999999999998);
#352=EDGE_CURVE('',#346,#346,#351,.T.);
#353=ORIENTED_EDGE('',*,*,#352,.F.);
#354=EDGE_LOOP('',(#353));
#355=FACE_OUTER_BOUND('',#354,.T.);
#356=ORIENTED_EDGE('',*,*,#335,.F.);
#357=EDGE_LOOP('',(#356));
#358=FACE_BOUND('',#357,.T.);
#359=ADVANCED_FACE('',(#355,#358),#344,.T.);
#360=CARTESIAN_POINT('',(-3.719865E-016,3.262499999999995,0.0));
#361=DIRECTION('',(-1.0,0.0,0.0));
#362=DIRECTION('',(0.0,0.0,1.0));
#363=AXIS2_PLACEMENT_3D('',#360,#361,#362);
#364=PLANE('',#363);
#365=ORIENTED_EDGE('',*,*,#324,.F.);
#366=EDGE_LOOP('',(#365));
#367=FACE_OUTER_BOUND('',#366,.T.);
#368=CARTESIAN_POINT('',(-2.465190E-031,2.474999999999992,0.0));
#369=VERTEX_POINT('',#368);
#370=CARTESIAN_POINT('',(-2.465190E-031,0.0,0.0));
#371=DIRECTION('',(1.0,0.0,0.0));
#372=DIRECTION('',(0.0,1.0,0.0));
#373=AXIS2_PLACEMENT_3D('',#370,#371,#372);
#374=CIRCLE('',#373,2.474999999999992);
#375=EDGE_CURVE('',#369,#369,#374,.T.);
#376=ORIENTED_EDGE('',*,*,#375,.T.);
#377=EDGE_LOOP('',(#376));
#378=FACE_BOUND('',#377,.T.);
#379=ADVANCED_FACE('',(#367,#378),#364,.T.);
#380=CARTESIAN_POINT('',(27.650000000000002,0.0,0.0));
#381=DIRECTION('',(1.0,0.0,0.0));
#382=DIRECTION('',(0.0,0.0,-1.0));
#383=AXIS2_PLACEMENT_3D('',#380,#381,#382);
#384=TOROIDAL_SURFACE('',#383,4.325,0.149999999999999);
#385=CARTESIAN_POINT('',(27.68882285676538,0.0,0.0));
#386=DIRECTION('',(1.0,0.0,0.0));
#387=DIRECTION('',(0.0,1.0,0.0));
#388=AXIS2_PLACEMENT_3D('',#385,#386,#387);
#389=CIRCLE('',#388,4.46988887394336);
#390=EDGE_CURVE('',#102,#102,#389,.T.);
#391=ORIENTED_EDGE('',*,*,#390,.F.);
#392=EDGE_LOOP('',(#391));
#393=FACE_OUTER_BOUND('',#392,.T.);
#394=CARTESIAN_POINT('',(27.5,5.296597E-016,4.325));
#395=VERTEX_POINT('',#394);
#396=CARTESIAN_POINT('',(27.5,0.0,0.0));
#397=DIRECTION('',(-1.0,0.0,0.0));
#398=DIRECTION('',(0.0,0.0,-1.0));
#399=AXIS2_PLACEMENT_3D('',#396,#397,#398);
#400=CIRCLE('',#399,4.325);
#401=EDGE_CURVE('',#395,#395,#400,.T.);
#402=ORIENTED_EDGE('',*,*,#401,.F.);
#403=EDGE_LOOP('',(#402));
#404=FACE_BOUND('',#403,.T.);
#405=ADVANCED_FACE('',(#393,#404),#384,.F.);
#406=CARTESIAN_POINT('',(27.650000000000002,0.0,0.0));
#407=DIRECTION('',(1.0,0.0,0.0));
#408=DIRECTION('',(0.0,0.0,-1.0));
#409=AXIS2_PLACEMENT_3D('',#406,#407,#408);
#410=TOROIDAL_SURFACE('',#409,4.325,0.149999999999999);
#411=CARTESIAN_POINT('',(27.5,0.0,0.0));
#412=DIRECTION('',(-1.0,0.0,0.0));
#413=DIRECTION('',(0.0,0.0,-1.0));
#414=AXIS2_PLACEMENT_3D('',#411,#412,#413);
#415=CIRCLE('',#414,4.325);
#416=EDGE_CURVE('',#395,#395,#415,.T.);
#417=ORIENTED_EDGE('',*,*,#416,.T.);
#418=EDGE_LOOP('',(#417));
#419=FACE_OUTER_BOUND('',#418,.T.);
#420=ORIENTED_EDGE('',*,*,#390,.T.);
#421=EDGE_LOOP('',(#420));
#422=FACE_BOUND('',#421,.T.);
#423=ADVANCED_FACE('',(#419,#422),#410,.F.);
#424=CARTESIAN_POINT('',(27.5,4.115387715813609,0.0));
#425=DIRECTION('',(-1.0,0.0,0.0));
#426=DIRECTION('',(0.0,0.0,1.0));
#427=AXIS2_PLACEMENT_3D('',#424,#425,#426);
#428=PLANE('',#427);
#429=CARTESIAN_POINT('',(27.5,4.520483805926181,0.0));
#430=VERTEX_POINT('',#429);
#431=CARTESIAN_POINT('',(27.5,0.0,0.0));
#432=DIRECTION('',(1.0,0.0,0.0));
#433=DIRECTION('',(0.0,1.0,0.0));
#434=AXIS2_PLACEMENT_3D('',#431,#432,#433);
#435=CIRCLE('',#434,4.520483805926181);
#436=EDGE_CURVE('',#430,#430,#435,.T.);
#437=ORIENTED_EDGE('',*,*,#436,.F.);
#438=EDGE_LOOP('',(#437));
#439=FACE_OUTER_BOUND('',#438,.T.);
#440=ORIENTED_EDGE('',*,*,#416,.F.);
#441=EDGE_LOOP('',(#440));
#442=FACE_BOUND('',#441,.T.);
#443=ADVANCED_FACE('',(#439,#442),#428,.T.);
#444=CARTESIAN_POINT('',(29.75,0.0,0.0));
#445=DIRECTION('',(-1.0,0.0,0.0));
#446=DIRECTION('',(0.0,1.0,0.0));
#447=AXIS2_PLACEMENT_3D('',#444,#445,#446);
#448=CONICAL_SURFACE('',#447,3.917598122956155,14.999999999999979);
#449=ORIENTED_EDGE('',*,*,#436,.T.);
#450=EDGE_LOOP('',(#449));
#451=FACE_OUTER_BOUND('',#450,.T.);
#452=ORIENTED_EDGE('',*,*,#108,.F.);
#453=EDGE_LOOP('',(#452));
#454=FACE_BOUND('',#453,.T.);
#455=ADVANCED_FACE('',(#451,#454),#448,.T.);
#456=CARTESIAN_POINT('',(23.150000000000006,0.0,0.0));
#457=DIRECTION('',(1.0,0.0,0.0));
#458=DIRECTION('',(0.0,0.0,-1.0));
#459=AXIS2_PLACEMENT_3D('',#456,#457,#458);
#460=TOROIDAL_SURFACE('',#459,4.325,0.150000000000001);
#461=CARTESIAN_POINT('',(23.176047226650045,-4.472721162951832,-5.477504E-016));
#462=VERTEX_POINT('',#461);
#463=CARTESIAN_POINT('',(23.176047226650045,0.0,0.0));
#464=DIRECTION('',(1.0,0.0,0.0));
#465=DIRECTION('',(0.0,1.0,0.0));
#466=AXIS2_PLACEMENT_3D('',#463,#464,#465);
#467=CIRCLE('',#466,4.472721162951832);
#468=EDGE_CURVE('',#462,#462,#467,.T.);
#469=ORIENTED_EDGE('',*,*,#468,.F.);
#470=EDGE_LOOP('',(#469));
#471=FACE_OUTER_BOUND('',#470,.T.);
#472=CARTESIAN_POINT('',(23.000000000000004,5.296597E-016,4.325));
#473=VERTEX_POINT('',#472);
#474=CARTESIAN_POINT('',(23.000000000000004,0.0,0.0));
#475=DIRECTION('',(-1.0,0.0,0.0));
#476=DIRECTION('',(0.0,0.0,-1.0));
#477=AXIS2_PLACEMENT_3D('',#474,#475,#476);
#478=CIRCLE('',#477,4.325);
#479=EDGE_CURVE('',#473,#473,#478,.T.);
#480=ORIENTED_EDGE('',*,*,#479,.F.);
#481=EDGE_LOOP('',(#480));
#482=FACE_BOUND('',#481,.T.);
#483=ADVANCED_FACE('',(#471,#482),#460,.F.);
#484=CARTESIAN_POINT('',(23.150000000000006,0.0,0.0));
#485=DIRECTION('',(1.0,0.0,0.0));
#486=DIRECTION('',(0.0,0.0,-1.0));
#487=AXIS2_PLACEMENT_3D('',#484,#485,#486);
#488=TOROIDAL_SURFACE('',#487,4.325,0.150000000000001);
#489=CARTESIAN_POINT('',(23.000000000000004,0.0,0.0));
#490=DIRECTION('',(-1.0,0.0,0.0));
#491=DIRECTION('',(0.0,0.0,-1.0));
#492=AXIS2_PLACEMENT_3D('',#489,#490,#491);
#493=CIRCLE('',#492,4.325);
#494=EDGE_CURVE('',#473,#473,#493,.T.);
#495=ORIENTED_EDGE('',*,*,#494,.T.);
#496=EDGE_LOOP('',(#495));
#497=FACE_OUTER_BOUND('',#496,.T.);
#498=CARTESIAN_POINT('',(23.176047226650045,0.0,0.0));
#499=DIRECTION('',(1.0,0.0,0.0));
#500=DIRECTION('',(0.0,1.0,0.0));
#501=AXIS2_PLACEMENT_3D('',#498,#499,#500);
#502=CIRCLE('',#501,4.472721162951832);
#503=EDGE_CURVE('',#462,#462,#502,.T.);
#504=ORIENTED_EDGE('',*,*,#503,.T.);
#505=EDGE_LOOP('',(#504));
#506=FACE_BOUND('',#505,.T.);
#507=ADVANCED_FACE('',(#497,#506),#488,.F.);
#508=CARTESIAN_POINT('',(23.000000000000004,4.251881519444567,0.0));
#509=DIRECTION('',(-1.0,0.0,0.0));
#510=DIRECTION('',(0.0,0.0,1.0));
#511=AXIS2_PLACEMENT_3D('',#508,#509,#510);
#512=PLANE('',#511);
#513=CARTESIAN_POINT('',(23.000000000000004,4.503763038889131,0.0));
#514=VERTEX_POINT('',#513);
#515=CARTESIAN_POINT('',(23.000000000000004,0.0,0.0));
#516=DIRECTION('',(1.0,0.0,0.0));
#517=DIRECTION('',(0.0,1.0,0.0));
#518=AXIS2_PLACEMENT_3D('',#515,#516,#517);
#519=CIRCLE('',#518,4.503763038889131);
#520=EDGE_CURVE('',#514,#514,#519,.T.);
#521=ORIENTED_EDGE('',*,*,#520,.F.);
#522=EDGE_LOOP('',(#521));
#523=FACE_OUTER_BOUND('',#522,.T.);
#524=ORIENTED_EDGE('',*,*,#494,.F.);
#525=EDGE_LOOP('',(#524));
#526=FACE_BOUND('',#525,.T.);
#527=ADVANCED_FACE('',(#523,#526),#512,.T.);
#528=CARTESIAN_POINT('',(25.250000000000004,0.0,0.0));
#529=DIRECTION('',(-1.0,0.0,0.0));
#530=DIRECTION('',(0.0,1.0,0.0));
#531=AXIS2_PLACEMENT_3D('',#528,#529,#530);
#532=CONICAL_SURFACE('',#531,4.107027332295086,9.999999999999989);
#533=ORIENTED_EDGE('',*,*,#520,.T.);
#534=EDGE_LOOP('',(#533));
#535=FACE_OUTER_BOUND('',#534,.T.);
#536=ORIENTED_EDGE('',*,*,#503,.F.);
#537=EDGE_LOOP('',(#536));
#538=FACE_BOUND('',#537,.T.);
#539=ADVANCED_FACE('',(#535,#538),#532,.T.);
#540=CARTESIAN_POINT('',(2.875,0.0,0.0));
#541=DIRECTION('',(1.0,0.0,0.0));
#542=DIRECTION('',(0.0,1.0,0.0));
#543=AXIS2_PLACEMENT_3D('',#540,#541,#542);
#544=CONICAL_SURFACE('',#543,4.274999999999999,45.000000000000142);
#545=CARTESIAN_POINT('',(3.1,4.5,0.0));
#546=VERTEX_POINT('',#545);
#547=CARTESIAN_POINT('',(3.1,0.0,0.0));
#548=DIRECTION('',(1.0,0.0,0.0));
#549=DIRECTION('',(0.0,1.0,0.0));
#550=AXIS2_PLACEMENT_3D('',#547,#548,#549);
#551=CIRCLE('',#550,4.5);
#552=EDGE_CURVE('',#546,#546,#551,.T.);
#553=ORIENTED_EDGE('',*,*,#552,.F.);
#554=EDGE_LOOP('',(#553));
#555=FACE_OUTER_BOUND('',#554,.T.);
#556=ORIENTED_EDGE('',*,*,#352,.T.);
#557=EDGE_LOOP('',(#556));
#558=FACE_BOUND('',#557,.T.);
#559=ADVANCED_FACE('',(#555,#558),#544,.T.);
#560=CARTESIAN_POINT('',(3.599999999999999,0.0,0.0));
#561=DIRECTION('',(1.0,0.0,0.0));
#562=DIRECTION('',(0.0,1.0,0.0));
#563=AXIS2_PLACEMENT_3D('',#560,#561,#562);
#564=CYLINDRICAL_SURFACE('',#563,4.5);
#565=ORIENTED_EDGE('',*,*,#264,.F.);
#566=EDGE_LOOP('',(#565));
#567=FACE_OUTER_BOUND('',#566,.T.);
#568=ORIENTED_EDGE('',*,*,#552,.T.);
#569=EDGE_LOOP('',(#568));
#570=FACE_BOUND('',#569,.T.);
#571=ADVANCED_FACE('',(#567,#570),#564,.T.);
#572=CARTESIAN_POINT('',(11.675000000000001,0.0,0.0));
#573=DIRECTION('',(1.0,0.0,0.0));
#574=DIRECTION('',(0.0,1.0,0.0));
#575=AXIS2_PLACEMENT_3D('',#572,#573,#574);
#576=CYLINDRICAL_SURFACE('',#575,4.5);
#577=ORIENTED_EDGE('',*,*,#176,.F.);
#578=EDGE_LOOP('',(#577));
#579=FACE_OUTER_BOUND('',#578,.T.);
#580=ORIENTED_EDGE('',*,*,#304,.T.);
#581=EDGE_LOOP('',(#580));
#582=FACE_BOUND('',#581,.T.);
#583=ADVANCED_FACE('',(#579,#582),#576,.T.);
#584=CARTESIAN_POINT('',(23.000000000000004,4.251881519444567,0.0));
#585=DIRECTION('',(-1.0,0.0,0.0));
#586=DIRECTION('',(0.0,0.0,1.0));
#587=AXIS2_PLACEMENT_3D('',#584,#585,#586);
#588=PLANE('',#587);
#589=ORIENTED_EDGE('',*,*,#479,.T.);
#590=EDGE_LOOP('',(#589));
#591=FACE_OUTER_BOUND('',#590,.T.);
#592=ORIENTED_EDGE('',*,*,#196,.T.);
#593=EDGE_LOOP('',(#592));
#594=FACE_BOUND('',#593,.T.);
#595=ADVANCED_FACE('',(#591,#594),#588,.T.);
#596=CARTESIAN_POINT('',(25.250000000000004,0.0,0.0));
#597=DIRECTION('',(-1.0,0.0,0.0));
#598=DIRECTION('',(0.0,1.0,0.0));
#599=AXIS2_PLACEMENT_3D('',#596,#597,#598);
#600=CONICAL_SURFACE('',#599,4.107027332295086,9.999999999999989);
#601=ORIENTED_EDGE('',*,*,#468,.T.);
#602=EDGE_LOOP('',(#601));
#603=FACE_OUTER_BOUND('',#602,.T.);
#604=CARTESIAN_POINT('',(27.5,3.71029162570104,0.0));
#605=VERTEX_POINT('',#604);
#606=CARTESIAN_POINT('',(27.5,0.0,0.0));
#607=DIRECTION('',(1.0,0.0,0.0));
#608=DIRECTION('',(0.0,1.0,0.0));
#609=AXIS2_PLACEMENT_3D('',#606,#607,#608);
#610=CIRCLE('',#609,3.71029162570104);
#611=EDGE_CURVE('',#605,#605,#610,.T.);
#612=ORIENTED_EDGE('',*,*,#611,.F.);
#613=EDGE_LOOP('',(#612));
#614=FACE_BOUND('',#613,.T.);
#615=ADVANCED_FACE('',(#603,#614),#600,.T.);
#616=CARTESIAN_POINT('',(27.5,4.115387715813609,0.0));
#617=DIRECTION('',(-1.0,0.0,0.0));
#618=DIRECTION('',(0.0,0.0,1.0));
#619=AXIS2_PLACEMENT_3D('',#616,#617,#618);
#620=PLANE('',#619);
#621=ORIENTED_EDGE('',*,*,#401,.T.);
#622=EDGE_LOOP('',(#621));
#623=FACE_OUTER_BOUND('',#622,.T.);
#624=ORIENTED_EDGE('',*,*,#611,.T.);
#625=EDGE_LOOP('',(#624));
#626=FACE_BOUND('',#625,.T.);
#627=ADVANCED_FACE('',(#623,#626),#620,.T.);
#628=CARTESIAN_POINT('',(16.0,0.0,0.0));
#629=DIRECTION('',(1.0,0.0,0.0));
#630=DIRECTION('',(0.0,1.0,0.0));
#631=AXIS2_PLACEMENT_3D('',#628,#629,#630);
#632=CYLINDRICAL_SURFACE('',#631,2.475);
#633=ORIENTED_EDGE('',*,*,#375,.F.);
#634=EDGE_LOOP('',(#633));
#635=FACE_OUTER_BOUND('',#634,.T.);
#636=ORIENTED_EDGE('',*,*,#131,.T.);
#637=EDGE_LOOP('',(#636));
#638=FACE_BOUND('',#637,.T.);
#639=ADVANCED_FACE('',(#635,#638),#632,.F.);
#640=CLOSED_SHELL('',(#95,#115,#135,#163,#183,#203,#231,#251,#271,#291,#311,#339,#359,#379,#405,#423,#443,#455,#483,#507,#527,#539,#559,#571,#583,#595,#615,#627,#639));
#641=MANIFOLD_SOLID_BREP('Solid1',#640);
#642=COLOUR_RGB('Brass - Satin',0.796000003814697,0.603999972343445,0.231000006198883);
#643=FILL_AREA_STYLE_COLOUR('Brass - Satin',#642);
#644=FILL_AREA_STYLE('Brass - Satin',(#643));
#645=SURFACE_STYLE_FILL_AREA(#644);
#646=SURFACE_SIDE_STYLE('Brass - Satin',(#645));
#647=SURFACE_STYLE_USAGE(.BOTH.,#646);
#648=PRESENTATION_STYLE_ASSIGNMENT((#647));
#649=STYLED_ITEM('',(#648),#641);
#650=MECHANICAL_DESIGN_GEOMETRIC_PRESENTATION_REPRESENTATION('',(#649),#36);
#651=ADVANCED_BREP_SHAPE_REPRESENTATION('ABSR',(#641),#36);
#652=SHAPE_REPRESENTATION_RELATIONSHIP('SRR','None',#651,#41);
ENDSEC;
END-ISO-10303-21;
