ISO-10303-21;
HEADER;
/****************************************************************
 * Generated by software with PDElib inside                    *
 * PDElib Version v51a, created Wed 11/30/2011                  *
 * ITI Transcendata (http://www.transcendata.com/)              *
 ****************************************************************/
FILE_DESCRIPTION((''),'2;1');
FILE_NAME('J:\\003 3D Zeichnungen_step\\Serie 39\\39sftf19mxx.stp','2014-10-29T13:21:23',('IA176480'),(''),'Autodesk Inventor 2013','Autodesk Inventor 2013','');
FILE_SCHEMA(('AUTOMOTIVE_DESIGN { 1 0 10303 214 1 1 1 1 }'));
ENDSEC;
DATA;
#5=APPLICATION_CONTEXT('automotive design');
#6=APPLICATION_PROTOCOL_DEFINITION('International Standard','automotive_design',2001,#5);
#7=PRODUCT_CONTEXT('',#5,'mechanical');
#8=PRODUCT('D112658','D112658',$,(#7));
#9=PRODUCT_RELATED_PRODUCT_CATEGORY('part',$,(#8));
#10=PRODUCT_DEFINITION_FORMATION('',$,#8);
#11=PRODUCT_DEFINITION_CONTEXT('part definition',#5,'design');
#12=PRODUCT_DEFINITION('',$,#10,#11);
#18=(NAMED_UNIT(*)PLANE_ANGLE_UNIT()SI_UNIT($,.RADIAN.));
#19=DIMENSIONAL_EXPONENTS(0.0,0.0,0.0,0.0,0.0,0.0,0.0);
#20=PLANE_ANGLE_MEASURE_WITH_UNIT(PLANE_ANGLE_MEASURE(0.0174532925),#18);
#24=(CONVERSION_BASED_UNIT('DEGREE',#20)NAMED_UNIT(#19)PLANE_ANGLE_UNIT());
#28=(NAMED_UNIT(*)SI_UNIT($,.STERADIAN.)SOLID_ANGLE_UNIT());
#32=(LENGTH_UNIT()NAMED_UNIT(*)SI_UNIT(.MILLI.,.METRE.));
#34=UNCERTAINTY_MEASURE_WITH_UNIT(LENGTH_MEASURE(0.01),#32,'DISTANCE_ACCURACY_VALUE','');
#36=(GEOMETRIC_REPRESENTATION_CONTEXT(3)GLOBAL_UNCERTAINTY_ASSIGNED_CONTEXT((#34))GLOBAL_UNIT_ASSIGNED_CONTEXT((#24,#28,#32))REPRESENTATION_CONTEXT('None','None'));
#37=AXIS2_PLACEMENT_3D('',#38,#39,#40);
#38=CARTESIAN_POINT('',(0.0,0.0,0.0));
#39=DIRECTION('',(0.0,0.0,1.0));
#40=DIRECTION('',(1.0,0.0,0.0));
#41=SHAPE_REPRESENTATION('',(#37),#36);
#42=PRODUCT_DEFINITION_SHAPE('','',#12);
#43=SHAPE_DEFINITION_REPRESENTATION(#42,#41);
#49=(NAMED_UNIT(*)PLANE_ANGLE_UNIT()SI_UNIT($,.RADIAN.));
#50=DIMENSIONAL_EXPONENTS(0.0,0.0,0.0,0.0,0.0,0.0,0.0);
#51=PLANE_ANGLE_MEASURE_WITH_UNIT(PLANE_ANGLE_MEASURE(0.0174532925),#49);
#55=(CONVERSION_BASED_UNIT('DEGREE',#51)NAMED_UNIT(#50)PLANE_ANGLE_UNIT());
#59=(NAMED_UNIT(*)SI_UNIT($,.STERADIAN.)SOLID_ANGLE_UNIT());
#63=(LENGTH_UNIT()NAMED_UNIT(*)SI_UNIT(.MILLI.,.METRE.));
#65=UNCERTAINTY_MEASURE_WITH_UNIT(LENGTH_MEASURE(0.000001),#63,'DISTANCE_ACCURACY_VALUE','');
#67=(GEOMETRIC_REPRESENTATION_CONTEXT(3)GLOBAL_UNCERTAINTY_ASSIGNED_CONTEXT((#65))GLOBAL_UNIT_ASSIGNED_CONTEXT((#55,#59,#63))REPRESENTATION_CONTEXT('','3D'));
#68=CARTESIAN_POINT('',(0.399999999999999,0.0,0.0));
#69=DIRECTION('',(1.0,0.0,0.0));
#70=DIRECTION('',(0.0,0.0,-1.0));
#71=AXIS2_PLACEMENT_3D('',#68,#69,#70);
#72=TOROIDAL_SURFACE('',#71,8.989892284226732,0.4);
#73=CARTESIAN_POINT('',(-1.110223E-015,8.989892284226732,0.0));
#74=VERTEX_POINT('',#73);
#75=CARTESIAN_POINT('',(-1.110223E-015,0.0,0.0));
#76=DIRECTION('',(1.0,0.0,0.0));
#77=DIRECTION('',(0.0,-1.0,0.0));
#78=AXIS2_PLACEMENT_3D('',#75,#76,#77);
#79=CIRCLE('',#78,8.989892284226732);
#80=EDGE_CURVE('',#74,#74,#79,.T.);
#81=ORIENTED_EDGE('',*,*,#80,.T.);
#82=EDGE_LOOP('',(#81));
#83=FACE_OUTER_BOUND('',#82,.T.);
#84=CARTESIAN_POINT('',(0.351252262637939,9.386910744883261,-2.299130E-015));
#85=VERTEX_POINT('',#84);
#86=CARTESIAN_POINT('',(0.351252262637939,0.0,-1.149565E-015));
#87=DIRECTION('',(-1.0,0.0,0.0));
#88=DIRECTION('',(0.0,-1.0,0.0));
#89=AXIS2_PLACEMENT_3D('',#86,#87,#88);
#90=CIRCLE('',#89,9.386910744883261);
#91=EDGE_CURVE('',#85,#85,#90,.T.);
#92=ORIENTED_EDGE('',*,*,#91,.T.);
#93=EDGE_LOOP('',(#92));
#94=FACE_BOUND('',#93,.T.);
#95=ADVANCED_FACE('',(#83,#94),#72,.T.);
#96=CARTESIAN_POINT('',(3.887813065659485,0.0,0.0));
#97=DIRECTION('',(1.0,0.0,0.0));
#98=DIRECTION('',(0.0,1.0,0.0));
#99=AXIS2_PLACEMENT_3D('',#96,#97,#98);
#100=CONICAL_SURFACE('',#99,9.821145810188687,7.000000000000038);
#101=CARTESIAN_POINT('',(7.775626131318973,10.298509230328266,0.0));
#102=VERTEX_POINT('',#101);
#103=CARTESIAN_POINT('',(7.775626131318973,0.0,0.0));
#104=DIRECTION('',(1.0,0.0,0.0));
#105=DIRECTION('',(0.0,1.0,0.0));
#106=AXIS2_PLACEMENT_3D('',#103,#104,#105);
#107=CIRCLE('',#106,10.298509230328266);
#108=EDGE_CURVE('',#102,#102,#107,.T.);
#109=ORIENTED_EDGE('',*,*,#108,.F.);
#110=EDGE_LOOP('',(#109));
#111=FACE_OUTER_BOUND('',#110,.T.);
#112=ORIENTED_EDGE('',*,*,#91,.F.);
#113=EDGE_LOOP('',(#112));
#114=FACE_BOUND('',#113,.T.);
#115=ADVANCED_FACE('',(#111,#114),#100,.T.);
#116=CARTESIAN_POINT('',(-1.110223E-015,8.421891195024552,0.0));
#117=DIRECTION('',(-1.0,0.0,0.0));
#118=DIRECTION('',(0.0,0.0,1.0));
#119=AXIS2_PLACEMENT_3D('',#116,#117,#118);
#120=PLANE('',#119);
#121=ORIENTED_EDGE('',*,*,#80,.F.);
#122=EDGE_LOOP('',(#121));
#123=FACE_OUTER_BOUND('',#122,.T.);
#124=CARTESIAN_POINT('',(0.0,7.499999999999993,0.0));
#125=VERTEX_POINT('',#124);
#126=CARTESIAN_POINT('',(0.0,0.0,0.0));
#127=DIRECTION('',(1.0,0.0,0.0));
#128=DIRECTION('',(0.0,1.0,0.0));
#129=AXIS2_PLACEMENT_3D('',#126,#127,#128);
#130=CIRCLE('',#129,7.499999999999993);
#131=EDGE_CURVE('',#125,#125,#130,.T.);
#132=ORIENTED_EDGE('',*,*,#131,.T.);
#133=EDGE_LOOP('',(#132));
#134=FACE_BOUND('',#133,.T.);
#135=ADVANCED_FACE('',(#123,#134),#120,.T.);
#136=CARTESIAN_POINT('',(33.5,0.0,0.0));
#137=DIRECTION('',(1.0,0.0,0.0));
#138=DIRECTION('',(0.0,0.0,-1.0));
#139=AXIS2_PLACEMENT_3D('',#136,#137,#138);
#140=TOROIDAL_SURFACE('',#139,12.000000000000002,2.5);
#141=CARTESIAN_POINT('',(33.5,9.500000000000002,0.0));
#142=VERTEX_POINT('',#141);
#143=CARTESIAN_POINT('',(33.5,0.0,0.0));
#144=DIRECTION('',(1.0,0.0,0.0));
#145=DIRECTION('',(0.0,-1.0,0.0));
#146=AXIS2_PLACEMENT_3D('',#143,#144,#145);
#147=CIRCLE('',#146,9.500000000000002);
#148=EDGE_CURVE('',#142,#142,#147,.T.);
#149=ORIENTED_EDGE('',*,*,#148,.T.);
#150=EDGE_LOOP('',(#149));
#151=FACE_OUTER_BOUND('',#150,.T.);
#152=CARTESIAN_POINT('',(36.0,12.000000000000002,-2.939152E-015));
#153=VERTEX_POINT('',#152);
#154=CARTESIAN_POINT('',(36.0,0.0,0.0));
#155=DIRECTION('',(-1.0,0.0,0.0));
#156=DIRECTION('',(0.0,-1.0,0.0));
#157=AXIS2_PLACEMENT_3D('',#154,#155,#156);
#158=CIRCLE('',#157,12.000000000000002);
#159=EDGE_CURVE('',#153,#153,#158,.T.);
#160=ORIENTED_EDGE('',*,*,#159,.T.);
#161=EDGE_LOOP('',(#160));
#162=FACE_BOUND('',#161,.T.);
#163=ADVANCED_FACE('',(#151,#162),#140,.F.);
#164=CARTESIAN_POINT('',(26.0,0.0,0.0));
#165=DIRECTION('',(1.0,0.0,0.0));
#166=DIRECTION('',(0.0,1.0,0.0));
#167=AXIS2_PLACEMENT_3D('',#164,#165,#166);
#168=CYLINDRICAL_SURFACE('',#167,9.500000000000002);
#169=CARTESIAN_POINT('',(16.0,9.499999999999996,0.0));
#170=VERTEX_POINT('',#169);
#171=CARTESIAN_POINT('',(16.0,0.0,0.0));
#172=DIRECTION('',(1.0,0.0,0.0));
#173=DIRECTION('',(0.0,1.0,0.0));
#174=AXIS2_PLACEMENT_3D('',#171,#172,#173);
#175=CIRCLE('',#174,9.499999999999996);
#176=EDGE_CURVE('',#170,#170,#175,.T.);
#177=ORIENTED_EDGE('',*,*,#176,.T.);
#178=EDGE_LOOP('',(#177));
#179=FACE_OUTER_BOUND('',#178,.T.);
#180=ORIENTED_EDGE('',*,*,#148,.F.);
#181=EDGE_LOOP('',(#180));
#182=FACE_BOUND('',#181,.T.);
#183=ADVANCED_FACE('',(#179,#182),#168,.T.);
#184=CARTESIAN_POINT('',(36.0,13.500000000000004,0.0));
#185=DIRECTION('',(-1.0,0.0,0.0));
#186=DIRECTION('',(0.0,0.0,1.0));
#187=AXIS2_PLACEMENT_3D('',#184,#185,#186);
#188=PLANE('',#187);
#189=CARTESIAN_POINT('',(36.0,17.5,0.0));
#190=VERTEX_POINT('',#189);
#191=CARTESIAN_POINT('',(36.0,0.0,0.0));
#192=DIRECTION('',(1.0,0.0,0.0));
#193=DIRECTION('',(0.0,1.0,0.0));
#194=AXIS2_PLACEMENT_3D('',#191,#192,#193);
#195=CIRCLE('',#194,17.5);
#196=EDGE_CURVE('',#190,#190,#195,.T.);
#197=ORIENTED_EDGE('',*,*,#196,.F.);
#198=EDGE_LOOP('',(#197));
#199=FACE_OUTER_BOUND('',#198,.T.);
#200=ORIENTED_EDGE('',*,*,#159,.F.);
#201=EDGE_LOOP('',(#200));
#202=FACE_BOUND('',#201,.T.);
#203=ADVANCED_FACE('',(#199,#202),#188,.T.);
#204=CARTESIAN_POINT('',(43.0,0.0,0.0));
#205=DIRECTION('',(1.0,0.0,0.0));
#206=DIRECTION('',(0.0,0.0,-1.0));
#207=AXIS2_PLACEMENT_3D('',#204,#205,#206);
#208=TOROIDAL_SURFACE('',#207,15.600000000000003,2.0);
#209=CARTESIAN_POINT('',(41.0,15.600000000000003,0.0));
#210=VERTEX_POINT('',#209);
#211=CARTESIAN_POINT('',(41.0,0.0,0.0));
#212=DIRECTION('',(1.0,0.0,0.0));
#213=DIRECTION('',(0.0,-1.0,0.0));
#214=AXIS2_PLACEMENT_3D('',#211,#212,#213);
#215=CIRCLE('',#214,15.600000000000003);
#216=EDGE_CURVE('',#210,#210,#215,.T.);
#217=ORIENTED_EDGE('',*,*,#216,.T.);
#218=EDGE_LOOP('',(#217));
#219=FACE_OUTER_BOUND('',#218,.T.);
#220=CARTESIAN_POINT('',(43.0,13.600000000000003,-3.331039E-015));
#221=VERTEX_POINT('',#220);
#222=CARTESIAN_POINT('',(43.0,0.0,0.0));
#223=DIRECTION('',(-1.0,0.0,0.0));
#224=DIRECTION('',(0.0,-1.0,0.0));
#225=AXIS2_PLACEMENT_3D('',#222,#223,#224);
#226=CIRCLE('',#225,13.600000000000003);
#227=EDGE_CURVE('',#221,#221,#226,.T.);
#228=ORIENTED_EDGE('',*,*,#227,.T.);
#229=EDGE_LOOP('',(#228));
#230=FACE_BOUND('',#229,.T.);
#231=ADVANCED_FACE('',(#219,#230),#208,.F.);
#232=CARTESIAN_POINT('',(41.0,15.550000000000001,0.0));
#233=DIRECTION('',(1.0,0.0,0.0));
#234=DIRECTION('',(0.0,0.0,-1.0));
#235=AXIS2_PLACEMENT_3D('',#232,#233,#234);
#236=PLANE('',#235);
#237=CARTESIAN_POINT('',(41.0,17.500000000000004,0.0));
#238=VERTEX_POINT('',#237);
#239=CARTESIAN_POINT('',(41.0,0.0,0.0));
#240=DIRECTION('',(1.0,0.0,0.0));
#241=DIRECTION('',(0.0,1.0,0.0));
#242=AXIS2_PLACEMENT_3D('',#239,#240,#241);
#243=CIRCLE('',#242,17.500000000000004);
#244=EDGE_CURVE('',#238,#238,#243,.T.);
#245=ORIENTED_EDGE('',*,*,#244,.T.);
#246=EDGE_LOOP('',(#245));
#247=FACE_OUTER_BOUND('',#246,.T.);
#248=ORIENTED_EDGE('',*,*,#216,.F.);
#249=EDGE_LOOP('',(#248));
#250=FACE_BOUND('',#249,.T.);
#251=ADVANCED_FACE('',(#247,#250),#236,.T.);
#252=CARTESIAN_POINT('',(48.462499999999991,0.0,0.0));
#253=DIRECTION('',(1.0,0.0,0.0));
#254=DIRECTION('',(0.0,1.0,0.0));
#255=AXIS2_PLACEMENT_3D('',#252,#253,#254);
#256=CYLINDRICAL_SURFACE('',#255,13.600000000000003);
#257=CARTESIAN_POINT('',(55.924999999999983,13.600000000000005,0.0));
#258=VERTEX_POINT('',#257);
#259=CARTESIAN_POINT('',(55.924999999999983,0.0,0.0));
#260=DIRECTION('',(1.0,0.0,0.0));
#261=DIRECTION('',(0.0,1.0,0.0));
#262=AXIS2_PLACEMENT_3D('',#259,#260,#261);
#263=CIRCLE('',#262,13.600000000000005);
#264=EDGE_CURVE('',#258,#258,#263,.T.);
#265=ORIENTED_EDGE('',*,*,#264,.F.);
#266=EDGE_LOOP('',(#265));
#267=FACE_OUTER_BOUND('',#266,.T.);
#268=ORIENTED_EDGE('',*,*,#227,.F.);
#269=EDGE_LOOP('',(#268));
#270=FACE_BOUND('',#269,.T.);
#271=ADVANCED_FACE('',(#267,#270),#256,.T.);
#272=CARTESIAN_POINT('',(74.0,0.0,0.0));
#273=DIRECTION('',(1.0,0.0,0.0));
#274=DIRECTION('',(0.0,0.0,-1.0));
#275=AXIS2_PLACEMENT_3D('',#272,#273,#274);
#276=TOROIDAL_SURFACE('',#275,10.574999999999996,1.0);
#277=CARTESIAN_POINT('',(74.0,11.574999999999998,0.0));
#278=VERTEX_POINT('',#277);
#279=CARTESIAN_POINT('',(74.0,0.0,0.0));
#280=DIRECTION('',(1.0,0.0,0.0));
#281=DIRECTION('',(0.0,-1.0,0.0));
#282=AXIS2_PLACEMENT_3D('',#279,#280,#281);
#283=CIRCLE('',#282,11.574999999999998);
#284=EDGE_CURVE('',#278,#278,#283,.T.);
#285=ORIENTED_EDGE('',*,*,#284,.T.);
#286=EDGE_LOOP('',(#285));
#287=FACE_OUTER_BOUND('',#286,.T.);
#288=CARTESIAN_POINT('',(75.0,10.574999999999996,-2.590128E-015));
#289=VERTEX_POINT('',#288);
#290=CARTESIAN_POINT('',(75.0,0.0,0.0));
#291=DIRECTION('',(-1.0,0.0,0.0));
#292=DIRECTION('',(0.0,-1.0,0.0));
#293=AXIS2_PLACEMENT_3D('',#290,#291,#292);
#294=CIRCLE('',#293,10.574999999999996);
#295=EDGE_CURVE('',#289,#289,#294,.T.);
#296=ORIENTED_EDGE('',*,*,#295,.T.);
#297=EDGE_LOOP('',(#296));
#298=FACE_BOUND('',#297,.T.);
#299=ADVANCED_FACE('',(#287,#298),#276,.T.);
#300=CARTESIAN_POINT('',(70.974999999999994,0.0,0.0));
#301=DIRECTION('',(1.0,0.0,0.0));
#302=DIRECTION('',(0.0,1.0,0.0));
#303=AXIS2_PLACEMENT_3D('',#300,#301,#302);
#304=CYLINDRICAL_SURFACE('',#303,11.574999999999998);
#305=CARTESIAN_POINT('',(66.950000000000003,11.574999999999996,0.0));
#306=VERTEX_POINT('',#305);
#307=CARTESIAN_POINT('',(66.950000000000003,0.0,0.0));
#308=DIRECTION('',(1.0,0.0,0.0));
#309=DIRECTION('',(0.0,1.0,0.0));
#310=AXIS2_PLACEMENT_3D('',#307,#308,#309);
#311=CIRCLE('',#310,11.574999999999996);
#312=EDGE_CURVE('',#306,#306,#311,.T.);
#313=ORIENTED_EDGE('',*,*,#312,.T.);
#314=EDGE_LOOP('',(#313));
#315=FACE_OUTER_BOUND('',#314,.T.);
#316=ORIENTED_EDGE('',*,*,#284,.F.);
#317=EDGE_LOOP('',(#316));
#318=FACE_BOUND('',#317,.T.);
#319=ADVANCED_FACE('',(#315,#318),#304,.T.);
#320=CARTESIAN_POINT('',(75.0,10.537500000000005,0.0));
#321=DIRECTION('',(1.0,0.0,0.0));
#322=DIRECTION('',(0.0,0.0,-1.0));
#323=AXIS2_PLACEMENT_3D('',#320,#321,#322);
#324=PLANE('',#323);
#325=ORIENTED_EDGE('',*,*,#295,.F.);
#326=EDGE_LOOP('',(#325));
#327=FACE_OUTER_BOUND('',#326,.T.);
#328=CARTESIAN_POINT('',(75.0,9.500000000000007,0.0));
#329=VERTEX_POINT('',#328);
#330=CARTESIAN_POINT('',(75.0,0.0,0.0));
#331=DIRECTION('',(1.0,0.0,0.0));
#332=DIRECTION('',(0.0,1.0,0.0));
#333=AXIS2_PLACEMENT_3D('',#330,#331,#332);
#334=CIRCLE('',#333,9.500000000000007);
#335=EDGE_CURVE('',#329,#329,#334,.T.);
#336=ORIENTED_EDGE('',*,*,#335,.F.);
#337=EDGE_LOOP('',(#336));
#338=FACE_BOUND('',#337,.T.);
#339=ADVANCED_FACE('',(#327,#338),#324,.T.);
#340=CARTESIAN_POINT('',(7.799999999999998,0.0,0.0));
#341=DIRECTION('',(1.0,0.0,0.0));
#342=DIRECTION('',(0.0,0.0,-1.0));
#343=AXIS2_PLACEMENT_3D('',#340,#341,#342);
#344=TOROIDAL_SURFACE('',#343,10.1,0.2);
#345=CARTESIAN_POINT('',(7.999999999999999,10.1,0.0));
#346=VERTEX_POINT('',#345);
#347=CARTESIAN_POINT('',(7.999999999999999,0.0,0.0));
#348=DIRECTION('',(1.0,0.0,0.0));
#349=DIRECTION('',(0.0,1.0,0.0));
#350=AXIS2_PLACEMENT_3D('',#347,#348,#349);
#351=CIRCLE('',#350,10.1);
#352=EDGE_CURVE('',#346,#346,#351,.T.);
#353=ORIENTED_EDGE('',*,*,#352,.F.);
#354=EDGE_LOOP('',(#353));
#355=FACE_OUTER_BOUND('',#354,.T.);
#356=ORIENTED_EDGE('',*,*,#108,.T.);
#357=EDGE_LOOP('',(#356));
#358=FACE_BOUND('',#357,.T.);
#359=ADVANCED_FACE('',(#355,#358),#344,.T.);
#360=CARTESIAN_POINT('',(7.999999999999998,9.721891195024554,0.0));
#361=DIRECTION('',(1.0,0.0,0.0));
#362=DIRECTION('',(0.0,0.0,-1.0));
#363=AXIS2_PLACEMENT_3D('',#360,#361,#362);
#364=PLANE('',#363);
#365=ORIENTED_EDGE('',*,*,#352,.T.);
#366=EDGE_LOOP('',(#365));
#367=FACE_OUTER_BOUND('',#366,.T.);
#368=CARTESIAN_POINT('',(7.999999999999998,9.343782390049107,0.0));
#369=VERTEX_POINT('',#368);
#370=CARTESIAN_POINT('',(7.999999999999998,0.0,0.0));
#371=DIRECTION('',(1.0,0.0,0.0));
#372=DIRECTION('',(0.0,1.0,0.0));
#373=AXIS2_PLACEMENT_3D('',#370,#371,#372);
#374=CIRCLE('',#373,9.343782390049107);
#375=EDGE_CURVE('',#369,#369,#374,.T.);
#376=ORIENTED_EDGE('',*,*,#375,.F.);
#377=EDGE_LOOP('',(#376));
#378=FACE_BOUND('',#377,.T.);
#379=ADVANCED_FACE('',(#367,#378),#364,.T.);
#380=CARTESIAN_POINT('',(11.887813065659486,0.0,0.0));
#381=DIRECTION('',(1.0,0.0,0.0));
#382=DIRECTION('',(0.0,1.0,0.0));
#383=AXIS2_PLACEMENT_3D('',#380,#381,#382);
#384=CONICAL_SURFACE('',#383,9.821145810188686,7.000000000000038);
#385=CARTESIAN_POINT('',(15.775626131318974,10.298509230328264,0.0));
#386=VERTEX_POINT('',#385);
#387=CARTESIAN_POINT('',(15.775626131318974,0.0,0.0));
#388=DIRECTION('',(1.0,0.0,0.0));
#389=DIRECTION('',(0.0,1.0,0.0));
#390=AXIS2_PLACEMENT_3D('',#387,#388,#389);
#391=CIRCLE('',#390,10.298509230328264);
#392=EDGE_CURVE('',#386,#386,#391,.T.);
#393=ORIENTED_EDGE('',*,*,#392,.F.);
#394=EDGE_LOOP('',(#393));
#395=FACE_OUTER_BOUND('',#394,.T.);
#396=ORIENTED_EDGE('',*,*,#375,.T.);
#397=EDGE_LOOP('',(#396));
#398=FACE_BOUND('',#397,.T.);
#399=ADVANCED_FACE('',(#395,#398),#384,.T.);
#400=CARTESIAN_POINT('',(15.800000000000001,0.0,0.0));
#401=DIRECTION('',(1.0,0.0,0.0));
#402=DIRECTION('',(0.0,0.0,-1.0));
#403=AXIS2_PLACEMENT_3D('',#400,#401,#402);
#404=TOROIDAL_SURFACE('',#403,10.1,0.200000000000001);
#405=CARTESIAN_POINT('',(16.0,10.1,0.0));
#406=VERTEX_POINT('',#405);
#407=CARTESIAN_POINT('',(16.0,0.0,0.0));
#408=DIRECTION('',(1.0,0.0,0.0));
#409=DIRECTION('',(0.0,1.0,0.0));
#410=AXIS2_PLACEMENT_3D('',#407,#408,#409);
#411=CIRCLE('',#410,10.1);
#412=EDGE_CURVE('',#406,#406,#411,.T.);
#413=ORIENTED_EDGE('',*,*,#412,.F.);
#414=EDGE_LOOP('',(#413));
#415=FACE_OUTER_BOUND('',#414,.T.);
#416=ORIENTED_EDGE('',*,*,#392,.T.);
#417=EDGE_LOOP('',(#416));
#418=FACE_BOUND('',#417,.T.);
#419=ADVANCED_FACE('',(#415,#418),#404,.T.);
#420=CARTESIAN_POINT('',(16.0,9.799999999999997,0.0));
#421=DIRECTION('',(1.0,0.0,0.0));
#422=DIRECTION('',(0.0,0.0,-1.0));
#423=AXIS2_PLACEMENT_3D('',#420,#421,#422);
#424=PLANE('',#423);
#425=ORIENTED_EDGE('',*,*,#412,.T.);
#426=EDGE_LOOP('',(#425));
#427=FACE_OUTER_BOUND('',#426,.T.);
#428=ORIENTED_EDGE('',*,*,#176,.F.);
#429=EDGE_LOOP('',(#428));
#430=FACE_BOUND('',#429,.T.);
#431=ADVANCED_FACE('',(#427,#430),#424,.T.);
#432=CARTESIAN_POINT('',(38.5,0.0,0.0));
#433=DIRECTION('',(1.0,0.0,0.0));
#434=DIRECTION('',(0.0,1.0,0.0));
#435=AXIS2_PLACEMENT_3D('',#432,#433,#434);
#436=CYLINDRICAL_SURFACE('',#435,17.5);
#437=ORIENTED_EDGE('',*,*,#244,.F.);
#438=EDGE_LOOP('',(#437));
#439=FACE_OUTER_BOUND('',#438,.T.);
#440=ORIENTED_EDGE('',*,*,#196,.T.);
#441=EDGE_LOOP('',(#440));
#442=FACE_BOUND('',#441,.T.);
#443=ADVANCED_FACE('',(#439,#442),#436,.T.);
#444=CARTESIAN_POINT('',(56.9375,0.0,0.0));
#445=DIRECTION('',(-1.0,0.0,0.0));
#446=DIRECTION('',(0.0,1.0,0.0));
#447=AXIS2_PLACEMENT_3D('',#444,#445,#446);
#448=CONICAL_SURFACE('',#447,12.5875,44.999999999999901);
#449=CARTESIAN_POINT('',(57.950000000000003,11.574999999999998,0.0));
#450=VERTEX_POINT('',#449);
#451=CARTESIAN_POINT('',(57.950000000000003,0.0,0.0));
#452=DIRECTION('',(1.0,0.0,0.0));
#453=DIRECTION('',(0.0,1.0,0.0));
#454=AXIS2_PLACEMENT_3D('',#451,#452,#453);
#455=CIRCLE('',#454,11.574999999999998);
#456=EDGE_CURVE('',#450,#450,#455,.T.);
#457=ORIENTED_EDGE('',*,*,#456,.F.);
#458=EDGE_LOOP('',(#457));
#459=FACE_OUTER_BOUND('',#458,.T.);
#460=ORIENTED_EDGE('',*,*,#264,.T.);
#461=EDGE_LOOP('',(#460));
#462=FACE_BOUND('',#461,.T.);
#463=ADVANCED_FACE('',(#459,#462),#448,.T.);
#464=CARTESIAN_POINT('',(59.474999999999994,0.0,0.0));
#465=DIRECTION('',(1.0,0.0,0.0));
#466=DIRECTION('',(0.0,1.0,0.0));
#467=AXIS2_PLACEMENT_3D('',#464,#465,#466);
#468=CYLINDRICAL_SURFACE('',#467,11.574999999999998);
#469=CARTESIAN_POINT('',(61.0,11.574999999999999,0.0));
#470=VERTEX_POINT('',#469);
#471=CARTESIAN_POINT('',(61.0,0.0,0.0));
#472=DIRECTION('',(1.0,0.0,0.0));
#473=DIRECTION('',(0.0,1.0,0.0));
#474=AXIS2_PLACEMENT_3D('',#471,#472,#473);
#475=CIRCLE('',#474,11.574999999999999);
#476=EDGE_CURVE('',#470,#470,#475,.T.);
#477=ORIENTED_EDGE('',*,*,#476,.F.);
#478=EDGE_LOOP('',(#477));
#479=FACE_OUTER_BOUND('',#478,.T.);
#480=ORIENTED_EDGE('',*,*,#456,.T.);
#481=EDGE_LOOP('',(#480));
#482=FACE_BOUND('',#481,.T.);
#483=ADVANCED_FACE('',(#479,#482),#468,.T.);
#484=CARTESIAN_POINT('',(62.012500000000003,0.0,0.0));
#485=DIRECTION('',(1.0,0.0,0.0));
#486=DIRECTION('',(0.0,1.0,0.0));
#487=AXIS2_PLACEMENT_3D('',#484,#485,#486);
#488=CONICAL_SURFACE('',#487,12.5875,45.000000000000028);
#489=CARTESIAN_POINT('',(63.024999999999991,13.599999999999998,0.0));
#490=VERTEX_POINT('',#489);
#491=CARTESIAN_POINT('',(63.024999999999991,0.0,0.0));
#492=DIRECTION('',(1.0,0.0,0.0));
#493=DIRECTION('',(0.0,1.0,0.0));
#494=AXIS2_PLACEMENT_3D('',#491,#492,#493);
#495=CIRCLE('',#494,13.599999999999998);
#496=EDGE_CURVE('',#490,#490,#495,.T.);
#497=ORIENTED_EDGE('',*,*,#496,.F.);
#498=EDGE_LOOP('',(#497));
#499=FACE_OUTER_BOUND('',#498,.T.);
#500=ORIENTED_EDGE('',*,*,#476,.T.);
#501=EDGE_LOOP('',(#500));
#502=FACE_BOUND('',#501,.T.);
#503=ADVANCED_FACE('',(#499,#502),#488,.T.);
#504=CARTESIAN_POINT('',(63.974999999999994,0.0,0.0));
#505=DIRECTION('',(1.0,0.0,0.0));
#506=DIRECTION('',(0.0,1.0,0.0));
#507=AXIS2_PLACEMENT_3D('',#504,#505,#506);
#508=CYLINDRICAL_SURFACE('',#507,13.599999999999998);
#509=CARTESIAN_POINT('',(64.924999999999997,13.600000000000001,0.0));
#510=VERTEX_POINT('',#509);
#511=CARTESIAN_POINT('',(64.924999999999997,0.0,0.0));
#512=DIRECTION('',(1.0,0.0,0.0));
#513=DIRECTION('',(0.0,1.0,0.0));
#514=AXIS2_PLACEMENT_3D('',#511,#512,#513);
#515=CIRCLE('',#514,13.600000000000001);
#516=EDGE_CURVE('',#510,#510,#515,.T.);
#517=ORIENTED_EDGE('',*,*,#516,.F.);
#518=EDGE_LOOP('',(#517));
#519=FACE_OUTER_BOUND('',#518,.T.);
#520=ORIENTED_EDGE('',*,*,#496,.T.);
#521=EDGE_LOOP('',(#520));
#522=FACE_BOUND('',#521,.T.);
#523=ADVANCED_FACE('',(#519,#522),#508,.T.);
#524=CARTESIAN_POINT('',(65.9375,0.0,0.0));
#525=DIRECTION('',(-1.0,0.0,0.0));
#526=DIRECTION('',(0.0,1.0,0.0));
#527=AXIS2_PLACEMENT_3D('',#524,#525,#526);
#528=CONICAL_SURFACE('',#527,12.587499999999999,45.000000000000007);
#529=ORIENTED_EDGE('',*,*,#312,.F.);
#530=EDGE_LOOP('',(#529));
#531=FACE_OUTER_BOUND('',#530,.T.);
#532=ORIENTED_EDGE('',*,*,#516,.T.);
#533=EDGE_LOOP('',(#532));
#534=FACE_BOUND('',#533,.T.);
#535=ADVANCED_FACE('',(#531,#534),#528,.T.);
#536=CARTESIAN_POINT('',(58.25,0.0,0.0));
#537=DIRECTION('',(1.0,0.0,0.0));
#538=DIRECTION('',(0.0,1.0,0.0));
#539=AXIS2_PLACEMENT_3D('',#536,#537,#538);
#540=CYLINDRICAL_SURFACE('',#539,9.500000000000002);
#541=CARTESIAN_POINT('',(41.5,9.499999999999995,0.0));
#542=VERTEX_POINT('',#541);
#543=CARTESIAN_POINT('',(41.5,0.0,0.0));
#544=DIRECTION('',(1.0,0.0,0.0));
#545=DIRECTION('',(0.0,1.0,0.0));
#546=AXIS2_PLACEMENT_3D('',#543,#544,#545);
#547=CIRCLE('',#546,9.499999999999995);
#548=EDGE_CURVE('',#542,#542,#547,.T.);
#549=ORIENTED_EDGE('',*,*,#548,.F.);
#550=EDGE_LOOP('',(#549));
#551=FACE_OUTER_BOUND('',#550,.T.);
#552=ORIENTED_EDGE('',*,*,#335,.T.);
#553=EDGE_LOOP('',(#552));
#554=FACE_BOUND('',#553,.T.);
#555=ADVANCED_FACE('',(#551,#554),#540,.F.);
#556=CARTESIAN_POINT('',(40.922649730810377,0.0,0.0));
#557=DIRECTION('',(1.0,0.0,0.0));
#558=DIRECTION('',(0.0,1.0,0.0));
#559=AXIS2_PLACEMENT_3D('',#556,#557,#558);
#560=CONICAL_SURFACE('',#559,8.500000000000002,59.999999999999972);
#561=CARTESIAN_POINT('',(40.345299461620755,7.500000000000009,0.0));
#562=VERTEX_POINT('',#561);
#563=CARTESIAN_POINT('',(40.345299461620755,0.0,0.0));
#564=DIRECTION('',(1.0,0.0,0.0));
#565=DIRECTION('',(0.0,1.0,0.0));
#566=AXIS2_PLACEMENT_3D('',#563,#564,#565);
#567=CIRCLE('',#566,7.500000000000009);
#568=EDGE_CURVE('',#562,#562,#567,.T.);
#569=ORIENTED_EDGE('',*,*,#568,.F.);
#570=EDGE_LOOP('',(#569));
#571=FACE_OUTER_BOUND('',#570,.T.);
#572=ORIENTED_EDGE('',*,*,#548,.T.);
#573=EDGE_LOOP('',(#572));
#574=FACE_BOUND('',#573,.T.);
#575=ADVANCED_FACE('',(#571,#574),#560,.F.);
#576=CARTESIAN_POINT('',(20.172649730810377,0.0,0.0));
#577=DIRECTION('',(1.0,0.0,0.0));
#578=DIRECTION('',(0.0,1.0,0.0));
#579=AXIS2_PLACEMENT_3D('',#576,#577,#578);
#580=CYLINDRICAL_SURFACE('',#579,7.500000000000001);
#581=ORIENTED_EDGE('',*,*,#131,.F.);
#582=EDGE_LOOP('',(#581));
#583=FACE_OUTER_BOUND('',#582,.T.);
#584=ORIENTED_EDGE('',*,*,#568,.T.);
#585=EDGE_LOOP('',(#584));
#586=FACE_BOUND('',#585,.T.);
#587=ADVANCED_FACE('',(#583,#586),#580,.F.);
#588=CLOSED_SHELL('',(#95,#115,#135,#163,#183,#203,#231,#251,#271,#299,#319,#339,#359,#379,#399,#419,#431,#443,#463,#483,#503,#523,#535,#555,#575,#587));
#589=MANIFOLD_SOLID_BREP('Solid1',#588);
#590=COLOUR_RGB('Metal-Brass',0.780391991138458,0.568626999855042,0.113724999129772);
#591=FILL_AREA_STYLE_COLOUR('Metal-Brass',#590);
#592=FILL_AREA_STYLE('Metal-Brass',(#591));
#593=SURFACE_STYLE_FILL_AREA(#592);
#594=SURFACE_SIDE_STYLE('Metal-Brass',(#593));
#595=SURFACE_STYLE_USAGE(.BOTH.,#594);
#596=PRESENTATION_STYLE_ASSIGNMENT((#595));
#597=STYLED_ITEM('',(#596),#589);
#598=MECHANICAL_DESIGN_GEOMETRIC_PRESENTATION_REPRESENTATION('',(#597),#36);
#599=ADVANCED_BREP_SHAPE_REPRESENTATION('ABSR',(#589),#36);
#600=SHAPE_REPRESENTATION_RELATIONSHIP('SRR','None',#599,#41);
ENDSEC;
END-ISO-10303-21;
