ISO-10303-21;
HEADER;
/* Generated by software containing ST-Developer
 * from STEP Tools, Inc. (www.steptools.com) 
 */

FILE_DESCRIPTION(
/* description */ ('48SFTF13FXX-54119'),
/* implementation_level */ '2;1');

FILE_NAME(
/* name */ 'J:\\003 3D Zeichnungen_step\\Serie 48\\48SFTF09FXX.stp',
/* time_stamp */ '2017-07-17T09:38:22+02:00',
/* author */ ('528268'),
/* organization */ (''),
/* preprocessor_version */ 'ST-DEVELOPER v16.1',
/* originating_system */ 'Autodesk Inventor 2016',
/* authorisation */ '');

FILE_SCHEMA (('AUTOMOTIVE_DESIGN { 1 0 10303 214 3 1 1 }'));
ENDSEC;

DATA;
#10=MECHANICAL_DESIGN_GEOMETRIC_PRESENTATION_REPRESENTATION('',(#13),#583);
#11=SHAPE_REPRESENTATION_RELATIONSHIP('SRR','None',#592,#12);
#12=ADVANCED_BREP_SHAPE_REPRESENTATION('',(#14),#582);
#13=STYLED_ITEM('',(#601),#14);
#14=MANIFOLD_SOLID_BREP('Solid1',#323);
#15=CONICAL_SURFACE('',#356,4.44711431702997,15.);
#16=CONICAL_SURFACE('',#360,3.25,59.9999999999998);
#17=CONICAL_SURFACE('',#364,3.625,10.);
#18=CONICAL_SURFACE('',#365,5.575,44.9999999999999);
#19=CONICAL_SURFACE('',#369,5.6,44.9999999999999);
#20=CONICAL_SURFACE('',#373,6.075,60.);
#21=CONICAL_SURFACE('',#376,4.775,9.99999999999997);
#22=CYLINDRICAL_SURFACE('',#330,6.95);
#23=CYLINDRICAL_SURFACE('',#337,4.5);
#24=CYLINDRICAL_SURFACE('',#341,9.);
#25=CYLINDRICAL_SURFACE('',#349,5.15);
#26=CYLINDRICAL_SURFACE('',#358,3.);
#27=CYLINDRICAL_SURFACE('',#362,3.5);
#28=CYLINDRICAL_SURFACE('',#367,6.);
#29=CYLINDRICAL_SURFACE('',#371,5.2);
#30=CYLINDRICAL_SURFACE('',#378,4.5);
#31=PLANE('',#328);
#32=PLANE('',#335);
#33=PLANE('',#347);
#34=PLANE('',#354);
#35=PLANE('',#374);
#36=PLANE('',#380);
#37=FACE_BOUND('',#94,.T.);
#38=FACE_BOUND('',#96,.T.);
#39=FACE_BOUND('',#98,.T.);
#40=FACE_BOUND('',#100,.T.);
#41=FACE_BOUND('',#102,.T.);
#42=FACE_BOUND('',#104,.T.);
#43=FACE_BOUND('',#106,.T.);
#44=FACE_BOUND('',#108,.T.);
#45=FACE_BOUND('',#110,.T.);
#46=FACE_BOUND('',#112,.T.);
#47=FACE_BOUND('',#114,.T.);
#48=FACE_BOUND('',#116,.T.);
#49=FACE_BOUND('',#118,.T.);
#50=FACE_BOUND('',#120,.T.);
#51=FACE_BOUND('',#122,.T.);
#52=FACE_BOUND('',#124,.T.);
#53=FACE_BOUND('',#126,.T.);
#54=FACE_BOUND('',#128,.T.);
#55=FACE_BOUND('',#130,.T.);
#56=FACE_BOUND('',#132,.T.);
#57=FACE_BOUND('',#134,.T.);
#58=FACE_BOUND('',#136,.T.);
#59=FACE_BOUND('',#138,.T.);
#60=FACE_BOUND('',#140,.T.);
#61=FACE_BOUND('',#142,.T.);
#62=FACE_BOUND('',#144,.T.);
#63=FACE_BOUND('',#146,.T.);
#64=FACE_BOUND('',#148,.T.);
#65=FACE_OUTER_BOUND('',#93,.T.);
#66=FACE_OUTER_BOUND('',#95,.T.);
#67=FACE_OUTER_BOUND('',#97,.T.);
#68=FACE_OUTER_BOUND('',#99,.T.);
#69=FACE_OUTER_BOUND('',#101,.T.);
#70=FACE_OUTER_BOUND('',#103,.T.);
#71=FACE_OUTER_BOUND('',#105,.T.);
#72=FACE_OUTER_BOUND('',#107,.T.);
#73=FACE_OUTER_BOUND('',#109,.T.);
#74=FACE_OUTER_BOUND('',#111,.T.);
#75=FACE_OUTER_BOUND('',#113,.T.);
#76=FACE_OUTER_BOUND('',#115,.T.);
#77=FACE_OUTER_BOUND('',#117,.T.);
#78=FACE_OUTER_BOUND('',#119,.T.);
#79=FACE_OUTER_BOUND('',#121,.T.);
#80=FACE_OUTER_BOUND('',#123,.T.);
#81=FACE_OUTER_BOUND('',#125,.T.);
#82=FACE_OUTER_BOUND('',#127,.T.);
#83=FACE_OUTER_BOUND('',#129,.T.);
#84=FACE_OUTER_BOUND('',#131,.T.);
#85=FACE_OUTER_BOUND('',#133,.T.);
#86=FACE_OUTER_BOUND('',#135,.T.);
#87=FACE_OUTER_BOUND('',#137,.T.);
#88=FACE_OUTER_BOUND('',#139,.T.);
#89=FACE_OUTER_BOUND('',#141,.T.);
#90=FACE_OUTER_BOUND('',#143,.T.);
#91=FACE_OUTER_BOUND('',#145,.T.);
#92=FACE_OUTER_BOUND('',#147,.T.);
#93=EDGE_LOOP('',(#233));
#94=EDGE_LOOP('',(#234));
#95=EDGE_LOOP('',(#235));
#96=EDGE_LOOP('',(#236));
#97=EDGE_LOOP('',(#237));
#98=EDGE_LOOP('',(#238));
#99=EDGE_LOOP('',(#239));
#100=EDGE_LOOP('',(#240));
#101=EDGE_LOOP('',(#241));
#102=EDGE_LOOP('',(#242));
#103=EDGE_LOOP('',(#243));
#104=EDGE_LOOP('',(#244));
#105=EDGE_LOOP('',(#245));
#106=EDGE_LOOP('',(#246));
#107=EDGE_LOOP('',(#247));
#108=EDGE_LOOP('',(#248));
#109=EDGE_LOOP('',(#249));
#110=EDGE_LOOP('',(#250));
#111=EDGE_LOOP('',(#251));
#112=EDGE_LOOP('',(#252));
#113=EDGE_LOOP('',(#253));
#114=EDGE_LOOP('',(#254));
#115=EDGE_LOOP('',(#255));
#116=EDGE_LOOP('',(#256));
#117=EDGE_LOOP('',(#257));
#118=EDGE_LOOP('',(#258));
#119=EDGE_LOOP('',(#259));
#120=EDGE_LOOP('',(#260));
#121=EDGE_LOOP('',(#261));
#122=EDGE_LOOP('',(#262));
#123=EDGE_LOOP('',(#263));
#124=EDGE_LOOP('',(#264));
#125=EDGE_LOOP('',(#265));
#126=EDGE_LOOP('',(#266));
#127=EDGE_LOOP('',(#267));
#128=EDGE_LOOP('',(#268));
#129=EDGE_LOOP('',(#269));
#130=EDGE_LOOP('',(#270));
#131=EDGE_LOOP('',(#271));
#132=EDGE_LOOP('',(#272));
#133=EDGE_LOOP('',(#273));
#134=EDGE_LOOP('',(#274));
#135=EDGE_LOOP('',(#275));
#136=EDGE_LOOP('',(#276));
#137=EDGE_LOOP('',(#277));
#138=EDGE_LOOP('',(#278));
#139=EDGE_LOOP('',(#279));
#140=EDGE_LOOP('',(#280));
#141=EDGE_LOOP('',(#281));
#142=EDGE_LOOP('',(#282));
#143=EDGE_LOOP('',(#283));
#144=EDGE_LOOP('',(#284));
#145=EDGE_LOOP('',(#285));
#146=EDGE_LOOP('',(#286));
#147=EDGE_LOOP('',(#287));
#148=EDGE_LOOP('',(#288));
#149=CIRCLE('',#326,6.95);
#150=CIRCLE('',#327,7.95);
#151=CIRCLE('',#329,8.5);
#152=CIRCLE('',#331,6.95);
#153=CIRCLE('',#333,6.5);
#154=CIRCLE('',#334,4.5);
#155=CIRCLE('',#336,8.5);
#156=CIRCLE('',#338,4.5);
#157=CIRCLE('',#340,9.);
#158=CIRCLE('',#342,9.);
#159=CIRCLE('',#345,4.65);
#160=CIRCLE('',#346,5.15);
#161=CIRCLE('',#348,3.75);
#162=CIRCLE('',#350,5.15);
#163=CIRCLE('',#352,3.943528053215);
#164=CIRCLE('',#353,3.46056514007047);
#165=CIRCLE('',#355,3.);
#166=CIRCLE('',#357,5.05);
#167=CIRCLE('',#359,3.);
#168=CIRCLE('',#361,3.5);
#169=CIRCLE('',#363,3.5);
#170=CIRCLE('',#366,6.);
#171=CIRCLE('',#368,6.);
#172=CIRCLE('',#370,5.2);
#173=CIRCLE('',#372,5.2);
#174=CIRCLE('',#375,5.05);
#175=CIRCLE('',#377,4.5);
#176=CIRCLE('',#379,4.5);
#177=VERTEX_POINT('',#497);
#178=VERTEX_POINT('',#499);
#179=VERTEX_POINT('',#502);
#180=VERTEX_POINT('',#505);
#181=VERTEX_POINT('',#508);
#182=VERTEX_POINT('',#510);
#183=VERTEX_POINT('',#513);
#184=VERTEX_POINT('',#516);
#185=VERTEX_POINT('',#519);
#186=VERTEX_POINT('',#522);
#187=VERTEX_POINT('',#526);
#188=VERTEX_POINT('',#528);
#189=VERTEX_POINT('',#531);
#190=VERTEX_POINT('',#534);
#191=VERTEX_POINT('',#537);
#192=VERTEX_POINT('',#539);
#193=VERTEX_POINT('',#542);
#194=VERTEX_POINT('',#545);
#195=VERTEX_POINT('',#548);
#196=VERTEX_POINT('',#551);
#197=VERTEX_POINT('',#554);
#198=VERTEX_POINT('',#558);
#199=VERTEX_POINT('',#561);
#200=VERTEX_POINT('',#564);
#201=VERTEX_POINT('',#567);
#202=VERTEX_POINT('',#571);
#203=VERTEX_POINT('',#574);
#204=VERTEX_POINT('',#577);
#205=EDGE_CURVE('',#177,#177,#149,.T.);
#206=EDGE_CURVE('',#178,#178,#150,.T.);
#207=EDGE_CURVE('',#179,#179,#151,.T.);
#208=EDGE_CURVE('',#180,#180,#152,.T.);
#209=EDGE_CURVE('',#181,#181,#153,.T.);
#210=EDGE_CURVE('',#182,#182,#154,.T.);
#211=EDGE_CURVE('',#183,#183,#155,.T.);
#212=EDGE_CURVE('',#184,#184,#156,.T.);
#213=EDGE_CURVE('',#185,#185,#157,.T.);
#214=EDGE_CURVE('',#186,#186,#158,.T.);
#215=EDGE_CURVE('',#187,#187,#159,.T.);
#216=EDGE_CURVE('',#188,#188,#160,.T.);
#217=EDGE_CURVE('',#189,#189,#161,.T.);
#218=EDGE_CURVE('',#190,#190,#162,.T.);
#219=EDGE_CURVE('',#191,#191,#163,.T.);
#220=EDGE_CURVE('',#192,#192,#164,.T.);
#221=EDGE_CURVE('',#193,#193,#165,.T.);
#222=EDGE_CURVE('',#194,#194,#166,.T.);
#223=EDGE_CURVE('',#195,#195,#167,.T.);
#224=EDGE_CURVE('',#196,#196,#168,.T.);
#225=EDGE_CURVE('',#197,#197,#169,.T.);
#226=EDGE_CURVE('',#198,#198,#170,.T.);
#227=EDGE_CURVE('',#199,#199,#171,.T.);
#228=EDGE_CURVE('',#200,#200,#172,.T.);
#229=EDGE_CURVE('',#201,#201,#173,.T.);
#230=EDGE_CURVE('',#202,#202,#174,.T.);
#231=EDGE_CURVE('',#203,#203,#175,.T.);
#232=EDGE_CURVE('',#204,#204,#176,.T.);
#233=ORIENTED_EDGE('',*,*,#205,.T.);
#234=ORIENTED_EDGE('',*,*,#206,.T.);
#235=ORIENTED_EDGE('',*,*,#207,.F.);
#236=ORIENTED_EDGE('',*,*,#206,.F.);
#237=ORIENTED_EDGE('',*,*,#208,.T.);
#238=ORIENTED_EDGE('',*,*,#205,.F.);
#239=ORIENTED_EDGE('',*,*,#209,.T.);
#240=ORIENTED_EDGE('',*,*,#210,.T.);
#241=ORIENTED_EDGE('',*,*,#211,.F.);
#242=ORIENTED_EDGE('',*,*,#209,.F.);
#243=ORIENTED_EDGE('',*,*,#212,.F.);
#244=ORIENTED_EDGE('',*,*,#210,.F.);
#245=ORIENTED_EDGE('',*,*,#213,.T.);
#246=ORIENTED_EDGE('',*,*,#211,.T.);
#247=ORIENTED_EDGE('',*,*,#214,.F.);
#248=ORIENTED_EDGE('',*,*,#213,.F.);
#249=ORIENTED_EDGE('',*,*,#207,.T.);
#250=ORIENTED_EDGE('',*,*,#214,.T.);
#251=ORIENTED_EDGE('',*,*,#215,.T.);
#252=ORIENTED_EDGE('',*,*,#216,.T.);
#253=ORIENTED_EDGE('',*,*,#215,.F.);
#254=ORIENTED_EDGE('',*,*,#217,.T.);
#255=ORIENTED_EDGE('',*,*,#218,.F.);
#256=ORIENTED_EDGE('',*,*,#216,.F.);
#257=ORIENTED_EDGE('',*,*,#219,.T.);
#258=ORIENTED_EDGE('',*,*,#220,.T.);
#259=ORIENTED_EDGE('',*,*,#220,.F.);
#260=ORIENTED_EDGE('',*,*,#221,.F.);
#261=ORIENTED_EDGE('',*,*,#222,.T.);
#262=ORIENTED_EDGE('',*,*,#219,.F.);
#263=ORIENTED_EDGE('',*,*,#223,.F.);
#264=ORIENTED_EDGE('',*,*,#221,.T.);
#265=ORIENTED_EDGE('',*,*,#224,.F.);
#266=ORIENTED_EDGE('',*,*,#223,.T.);
#267=ORIENTED_EDGE('',*,*,#225,.F.);
#268=ORIENTED_EDGE('',*,*,#224,.T.);
#269=ORIENTED_EDGE('',*,*,#217,.F.);
#270=ORIENTED_EDGE('',*,*,#225,.T.);
#271=ORIENTED_EDGE('',*,*,#226,.F.);
#272=ORIENTED_EDGE('',*,*,#218,.T.);
#273=ORIENTED_EDGE('',*,*,#227,.F.);
#274=ORIENTED_EDGE('',*,*,#226,.T.);
#275=ORIENTED_EDGE('',*,*,#228,.F.);
#276=ORIENTED_EDGE('',*,*,#227,.T.);
#277=ORIENTED_EDGE('',*,*,#229,.F.);
#278=ORIENTED_EDGE('',*,*,#228,.T.);
#279=ORIENTED_EDGE('',*,*,#208,.F.);
#280=ORIENTED_EDGE('',*,*,#229,.T.);
#281=ORIENTED_EDGE('',*,*,#230,.F.);
#282=ORIENTED_EDGE('',*,*,#212,.T.);
#283=ORIENTED_EDGE('',*,*,#231,.F.);
#284=ORIENTED_EDGE('',*,*,#230,.T.);
#285=ORIENTED_EDGE('',*,*,#232,.F.);
#286=ORIENTED_EDGE('',*,*,#231,.T.);
#287=ORIENTED_EDGE('',*,*,#222,.F.);
#288=ORIENTED_EDGE('',*,*,#232,.T.);
#289=TOROIDAL_SURFACE('',#325,7.95,1.);
#290=TOROIDAL_SURFACE('',#332,6.5,2.);
#291=TOROIDAL_SURFACE('',#339,8.5,0.5);
#292=TOROIDAL_SURFACE('',#343,8.5,0.5);
#293=TOROIDAL_SURFACE('',#344,4.65,0.5);
#294=TOROIDAL_SURFACE('',#351,3.46056514007047,0.5);
#295=ADVANCED_FACE('',(#65,#37),#289,.F.);
#296=ADVANCED_FACE('',(#66,#38),#31,.T.);
#297=ADVANCED_FACE('',(#67,#39),#22,.T.);
#298=ADVANCED_FACE('',(#68,#40),#290,.F.);
#299=ADVANCED_FACE('',(#69,#41),#32,.T.);
#300=ADVANCED_FACE('',(#70,#42),#23,.T.);
#301=ADVANCED_FACE('',(#71,#43),#291,.T.);
#302=ADVANCED_FACE('',(#72,#44),#24,.T.);
#303=ADVANCED_FACE('',(#73,#45),#292,.T.);
#304=ADVANCED_FACE('',(#74,#46),#293,.T.);
#305=ADVANCED_FACE('',(#75,#47),#33,.T.);
#306=ADVANCED_FACE('',(#76,#48),#25,.T.);
#307=ADVANCED_FACE('',(#77,#49),#294,.T.);
#308=ADVANCED_FACE('',(#78,#50),#34,.T.);
#309=ADVANCED_FACE('',(#79,#51),#15,.T.);
#310=ADVANCED_FACE('',(#80,#52),#26,.F.);
#311=ADVANCED_FACE('',(#81,#53),#16,.T.);
#312=ADVANCED_FACE('',(#82,#54),#27,.F.);
#313=ADVANCED_FACE('',(#83,#55),#17,.F.);
#314=ADVANCED_FACE('',(#84,#56),#18,.T.);
#315=ADVANCED_FACE('',(#85,#57),#28,.T.);
#316=ADVANCED_FACE('',(#86,#58),#19,.T.);
#317=ADVANCED_FACE('',(#87,#59),#29,.T.);
#318=ADVANCED_FACE('',(#88,#60),#20,.T.);
#319=ADVANCED_FACE('',(#89,#61),#35,.T.);
#320=ADVANCED_FACE('',(#90,#62),#21,.T.);
#321=ADVANCED_FACE('',(#91,#63),#30,.T.);
#322=ADVANCED_FACE('',(#92,#64),#36,.T.);
#323=CLOSED_SHELL('',(#295,#296,#297,#298,#299,#300,#301,#302,#303,#304,
#305,#306,#307,#308,#309,#310,#311,#312,#313,#314,#315,#316,#317,#318,#319,
#320,#321,#322));
#324=AXIS2_PLACEMENT_3D('placement',#495,#381,#382);
#325=AXIS2_PLACEMENT_3D('',#496,#383,#384);
#326=AXIS2_PLACEMENT_3D('',#498,#385,#386);
#327=AXIS2_PLACEMENT_3D('',#500,#387,#388);
#328=AXIS2_PLACEMENT_3D('',#501,#389,#390);
#329=AXIS2_PLACEMENT_3D('',#503,#391,#392);
#330=AXIS2_PLACEMENT_3D('',#504,#393,#394);
#331=AXIS2_PLACEMENT_3D('',#506,#395,#396);
#332=AXIS2_PLACEMENT_3D('',#507,#397,#398);
#333=AXIS2_PLACEMENT_3D('',#509,#399,#400);
#334=AXIS2_PLACEMENT_3D('',#511,#401,#402);
#335=AXIS2_PLACEMENT_3D('',#512,#403,#404);
#336=AXIS2_PLACEMENT_3D('',#514,#405,#406);
#337=AXIS2_PLACEMENT_3D('',#515,#407,#408);
#338=AXIS2_PLACEMENT_3D('',#517,#409,#410);
#339=AXIS2_PLACEMENT_3D('',#518,#411,#412);
#340=AXIS2_PLACEMENT_3D('',#520,#413,#414);
#341=AXIS2_PLACEMENT_3D('',#521,#415,#416);
#342=AXIS2_PLACEMENT_3D('',#523,#417,#418);
#343=AXIS2_PLACEMENT_3D('',#524,#419,#420);
#344=AXIS2_PLACEMENT_3D('',#525,#421,#422);
#345=AXIS2_PLACEMENT_3D('',#527,#423,#424);
#346=AXIS2_PLACEMENT_3D('',#529,#425,#426);
#347=AXIS2_PLACEMENT_3D('',#530,#427,#428);
#348=AXIS2_PLACEMENT_3D('',#532,#429,#430);
#349=AXIS2_PLACEMENT_3D('',#533,#431,#432);
#350=AXIS2_PLACEMENT_3D('',#535,#433,#434);
#351=AXIS2_PLACEMENT_3D('',#536,#435,#436);
#352=AXIS2_PLACEMENT_3D('',#538,#437,#438);
#353=AXIS2_PLACEMENT_3D('',#540,#439,#440);
#354=AXIS2_PLACEMENT_3D('',#541,#441,#442);
#355=AXIS2_PLACEMENT_3D('',#543,#443,#444);
#356=AXIS2_PLACEMENT_3D('',#544,#445,#446);
#357=AXIS2_PLACEMENT_3D('',#546,#447,#448);
#358=AXIS2_PLACEMENT_3D('',#547,#449,#450);
#359=AXIS2_PLACEMENT_3D('',#549,#451,#452);
#360=AXIS2_PLACEMENT_3D('',#550,#453,#454);
#361=AXIS2_PLACEMENT_3D('',#552,#455,#456);
#362=AXIS2_PLACEMENT_3D('',#553,#457,#458);
#363=AXIS2_PLACEMENT_3D('',#555,#459,#460);
#364=AXIS2_PLACEMENT_3D('',#556,#461,#462);
#365=AXIS2_PLACEMENT_3D('',#557,#463,#464);
#366=AXIS2_PLACEMENT_3D('',#559,#465,#466);
#367=AXIS2_PLACEMENT_3D('',#560,#467,#468);
#368=AXIS2_PLACEMENT_3D('',#562,#469,#470);
#369=AXIS2_PLACEMENT_3D('',#563,#471,#472);
#370=AXIS2_PLACEMENT_3D('',#565,#473,#474);
#371=AXIS2_PLACEMENT_3D('',#566,#475,#476);
#372=AXIS2_PLACEMENT_3D('',#568,#477,#478);
#373=AXIS2_PLACEMENT_3D('',#569,#479,#480);
#374=AXIS2_PLACEMENT_3D('',#570,#481,#482);
#375=AXIS2_PLACEMENT_3D('',#572,#483,#484);
#376=AXIS2_PLACEMENT_3D('',#573,#485,#486);
#377=AXIS2_PLACEMENT_3D('',#575,#487,#488);
#378=AXIS2_PLACEMENT_3D('',#576,#489,#490);
#379=AXIS2_PLACEMENT_3D('',#578,#491,#492);
#380=AXIS2_PLACEMENT_3D('',#579,#493,#494);
#381=DIRECTION('axis',(0.,0.,1.));
#382=DIRECTION('refdir',(1.,0.,0.));
#383=DIRECTION('center_axis',(1.,1.22464679914735E-16,0.));
#384=DIRECTION('ref_axis',(0.,0.,-1.));
#385=DIRECTION('center_axis',(1.,1.22464679914735E-16,0.));
#386=DIRECTION('ref_axis',(1.19808240067463E-16,-1.,1.22464679914735E-16));
#387=DIRECTION('center_axis',(-1.,-1.22464679914735E-16,0.));
#388=DIRECTION('ref_axis',(1.22464679914735E-16,-1.,1.22464679914735E-16));
#389=DIRECTION('center_axis',(-1.,-1.22464679914735E-16,0.));
#390=DIRECTION('ref_axis',(0.,0.,1.));
#391=DIRECTION('center_axis',(1.,1.22464679914735E-16,0.));
#392=DIRECTION('ref_axis',(1.22464679914735E-16,-1.,1.22464679914735E-16));
#393=DIRECTION('center_axis',(1.,1.22464679914735E-16,0.));
#394=DIRECTION('ref_axis',(-1.22355437834965E-16,1.,0.));
#395=DIRECTION('center_axis',(1.,1.22464679914735E-16,0.));
#396=DIRECTION('ref_axis',(-1.22355437834966E-16,1.,0.));
#397=DIRECTION('center_axis',(1.,1.22464679914735E-16,0.));
#398=DIRECTION('ref_axis',(0.,0.,-1.));
#399=DIRECTION('center_axis',(1.,1.22464679914735E-16,0.));
#400=DIRECTION('ref_axis',(1.22464679914735E-16,-1.,1.22464679914735E-16));
#401=DIRECTION('center_axis',(-1.,-1.22464679914735E-16,0.));
#402=DIRECTION('ref_axis',(1.2335811384724E-16,-1.,1.22464679914735E-16));
#403=DIRECTION('center_axis',(1.,1.22464679914735E-16,0.));
#404=DIRECTION('ref_axis',(0.,0.,-1.));
#405=DIRECTION('center_axis',(-1.,-1.22464679914735E-16,0.));
#406=DIRECTION('ref_axis',(1.22464679914735E-16,-1.,1.22464679914735E-16));
#407=DIRECTION('center_axis',(1.,1.22464679914735E-16,0.));
#408=DIRECTION('ref_axis',(-1.22355437834966E-16,1.,0.));
#409=DIRECTION('center_axis',(1.,1.22464679914735E-16,0.));
#410=DIRECTION('ref_axis',(-1.22355437834966E-16,1.,0.));
#411=DIRECTION('center_axis',(1.,1.22464679914735E-16,0.));
#412=DIRECTION('ref_axis',(0.,0.,-1.));
#413=DIRECTION('center_axis',(1.,1.22464679914735E-16,0.));
#414=DIRECTION('ref_axis',(1.2335811384724E-16,-1.,1.22464679914735E-16));
#415=DIRECTION('center_axis',(1.,1.22464679914735E-16,0.));
#416=DIRECTION('ref_axis',(-1.22355437834966E-16,1.,0.));
#417=DIRECTION('center_axis',(-1.,-1.22464679914735E-16,0.));
#418=DIRECTION('ref_axis',(1.2335811384724E-16,-1.,1.22464679914735E-16));
#419=DIRECTION('center_axis',(1.,1.22464679914735E-16,0.));
#420=DIRECTION('ref_axis',(0.,0.,-1.));
#421=DIRECTION('center_axis',(1.,1.22464679914735E-16,0.));
#422=DIRECTION('ref_axis',(0.,0.,-1.));
#423=DIRECTION('center_axis',(1.,1.22464679914735E-16,0.));
#424=DIRECTION('ref_axis',(1.22464679914735E-16,-1.,1.22464679914735E-16));
#425=DIRECTION('center_axis',(-1.,-1.22464679914735E-16,0.));
#426=DIRECTION('ref_axis',(1.21262223563427E-16,-1.,1.22464679914735E-16));
#427=DIRECTION('center_axis',(-1.,-1.22464679914735E-16,0.));
#428=DIRECTION('ref_axis',(0.,0.,1.));
#429=DIRECTION('center_axis',(1.,1.22464679914735E-16,0.));
#430=DIRECTION('ref_axis',(-1.22355437834966E-16,1.,0.));
#431=DIRECTION('center_axis',(1.,1.22464679914735E-16,0.));
#432=DIRECTION('ref_axis',(-1.22355437834966E-16,1.,0.));
#433=DIRECTION('center_axis',(1.,1.22464679914735E-16,0.));
#434=DIRECTION('ref_axis',(-1.22355437834966E-16,1.,0.));
#435=DIRECTION('center_axis',(1.,1.22464679914735E-16,0.));
#436=DIRECTION('ref_axis',(0.,0.,-1.));
#437=DIRECTION('center_axis',(1.,1.05573899466751E-16,-1.05573899466751E-16));
#438=DIRECTION('ref_axis',(1.05573899466751E-16,-1.,1.56280765316598E-32));
#439=DIRECTION('center_axis',(-1.,-1.22464679914735E-16,0.));
#440=DIRECTION('ref_axis',(1.22464679914735E-16,-1.,1.22464679914735E-16));
#441=DIRECTION('center_axis',(1.,1.22464679914735E-16,0.));
#442=DIRECTION('ref_axis',(0.,0.,-1.));
#443=DIRECTION('center_axis',(1.,1.22464679914735E-16,0.));
#444=DIRECTION('ref_axis',(-1.22355437834966E-16,1.,0.));
#445=DIRECTION('center_axis',(-1.,-1.22464679914735E-16,0.));
#446=DIRECTION('ref_axis',(-1.22355437834966E-16,1.,0.));
#447=DIRECTION('center_axis',(1.,1.22464679914735E-16,0.));
#448=DIRECTION('ref_axis',(-1.22355437834966E-16,1.,0.));
#449=DIRECTION('center_axis',(1.,1.22464679914735E-16,0.));
#450=DIRECTION('ref_axis',(-1.22355437834966E-16,1.,0.));
#451=DIRECTION('center_axis',(1.,1.22464679914735E-16,0.));
#452=DIRECTION('ref_axis',(-1.22355437834966E-16,1.,0.));
#453=DIRECTION('center_axis',(1.,1.22464679914735E-16,0.));
#454=DIRECTION('ref_axis',(-1.22355437834966E-16,1.,0.));
#455=DIRECTION('center_axis',(1.,1.22464679914735E-16,0.));
#456=DIRECTION('ref_axis',(-1.22355437834966E-16,1.,0.));
#457=DIRECTION('center_axis',(1.,1.22464679914735E-16,0.));
#458=DIRECTION('ref_axis',(-1.22355437834966E-16,1.,0.));
#459=DIRECTION('center_axis',(1.,1.22464679914735E-16,0.));
#460=DIRECTION('ref_axis',(-1.22355437834966E-16,1.,0.));
#461=DIRECTION('center_axis',(-1.,-1.22464679914735E-16,0.));
#462=DIRECTION('ref_axis',(-1.22355437834966E-16,1.,0.));
#463=DIRECTION('center_axis',(1.,1.22464679914735E-16,0.));
#464=DIRECTION('ref_axis',(-1.22355437834966E-16,1.,0.));
#465=DIRECTION('center_axis',(1.,1.22464679914735E-16,0.));
#466=DIRECTION('ref_axis',(-1.22355437834966E-16,1.,0.));
#467=DIRECTION('center_axis',(1.,1.22464679914735E-16,0.));
#468=DIRECTION('ref_axis',(-1.22355437834966E-16,1.,0.));
#469=DIRECTION('center_axis',(1.,1.22464679914735E-16,0.));
#470=DIRECTION('ref_axis',(-1.22355437834966E-16,1.,0.));
#471=DIRECTION('center_axis',(-1.,-1.22464679914735E-16,0.));
#472=DIRECTION('ref_axis',(-1.22355437834966E-16,1.,0.));
#473=DIRECTION('center_axis',(1.,1.22464679914735E-16,0.));
#474=DIRECTION('ref_axis',(-1.22355437834966E-16,1.,0.));
#475=DIRECTION('center_axis',(1.,1.22464679914735E-16,0.));
#476=DIRECTION('ref_axis',(-1.22355437834966E-16,1.,0.));
#477=DIRECTION('center_axis',(1.,1.22464679914735E-16,0.));
#478=DIRECTION('ref_axis',(-1.22355437834966E-16,1.,0.));
#479=DIRECTION('center_axis',(1.,1.22464679914735E-16,0.));
#480=DIRECTION('ref_axis',(-1.22355437834966E-16,1.,0.));
#481=DIRECTION('center_axis',(-1.,-1.22464679914735E-16,0.));
#482=DIRECTION('ref_axis',(0.,0.,1.));
#483=DIRECTION('center_axis',(1.,1.22464679914735E-16,0.));
#484=DIRECTION('ref_axis',(-1.22355437834966E-16,1.,0.));
#485=DIRECTION('center_axis',(-1.,-1.22464679914735E-16,0.));
#486=DIRECTION('ref_axis',(-1.22355437834966E-16,1.,0.));
#487=DIRECTION('center_axis',(1.,1.22464679914735E-16,0.));
#488=DIRECTION('ref_axis',(-1.22355437834966E-16,1.,0.));
#489=DIRECTION('center_axis',(1.,1.22464679914735E-16,0.));
#490=DIRECTION('ref_axis',(-1.22355437834966E-16,1.,0.));
#491=DIRECTION('center_axis',(1.,1.22464679914735E-16,0.));
#492=DIRECTION('ref_axis',(-1.22355437834966E-16,1.,0.));
#493=DIRECTION('center_axis',(-1.,-1.22464679914735E-16,0.));
#494=DIRECTION('ref_axis',(0.,0.,1.));
#495=CARTESIAN_POINT('',(0.,0.,0.));
#496=CARTESIAN_POINT('Origin',(-24.75,-3.0310008278897E-15,0.));
#497=CARTESIAN_POINT('',(-24.75,6.95,0.));
#498=CARTESIAN_POINT('Origin',(-24.75,-3.0310008278897E-15,0.));
#499=CARTESIAN_POINT('',(-23.75,7.95,-1.94718841064429E-15));
#500=CARTESIAN_POINT('Origin',(-23.75,-2.90853614797497E-15,0.));
#501=CARTESIAN_POINT('Origin',(-23.75,7.975,0.));
#502=CARTESIAN_POINT('',(-23.75,8.5,0.));
#503=CARTESIAN_POINT('Origin',(-23.75,-2.90853614797497E-15,0.));
#504=CARTESIAN_POINT('Origin',(-28.0198185144591,-3.43143810564221E-15,
0.));
#505=CARTESIAN_POINT('',(-32.2896370289182,6.95,0.));
#506=CARTESIAN_POINT('Origin',(-32.2896370289182,-3.95434006330945E-15,
0.));
#507=CARTESIAN_POINT('Origin',(-20.,-2.44929359829471E-15,0.));
#508=CARTESIAN_POINT('',(-22.,6.5,2.46519032881566E-31));
#509=CARTESIAN_POINT('Origin',(-22.,-2.69422295812418E-15,0.));
#510=CARTESIAN_POINT('',(-20.,4.5,-1.10218211923262E-15));
#511=CARTESIAN_POINT('Origin',(-20.,-2.44929359829471E-15,0.));
#512=CARTESIAN_POINT('Origin',(-22.,6.75,0.));
#513=CARTESIAN_POINT('',(-22.,8.5,-2.0818995585505E-15));
#514=CARTESIAN_POINT('Origin',(-22.,-2.69422295812418E-15,0.));
#515=CARTESIAN_POINT('Origin',(-15.5,-1.8982025386784E-15,0.));
#516=CARTESIAN_POINT('',(-9.,4.5,0.));
#517=CARTESIAN_POINT('Origin',(-9.,-1.10218211923262E-15,0.));
#518=CARTESIAN_POINT('Origin',(-22.5,-2.75545529808155E-15,0.));
#519=CARTESIAN_POINT('',(-22.5,9.,0.));
#520=CARTESIAN_POINT('Origin',(-22.5,-2.75545529808155E-15,0.));
#521=CARTESIAN_POINT('Origin',(-22.875,-2.80137955304957E-15,0.));
#522=CARTESIAN_POINT('',(-23.25,9.,-2.20436423846524E-15));
#523=CARTESIAN_POINT('Origin',(-23.25,-2.8473038080176E-15,0.));
#524=CARTESIAN_POINT('Origin',(-23.25,-2.8473038080176E-15,0.));
#525=CARTESIAN_POINT('Origin',(-46.75,-5.72522378601388E-15,0.));
#526=CARTESIAN_POINT('',(-47.25,4.65,0.));
#527=CARTESIAN_POINT('Origin',(-47.25,-5.78645612597125E-15,0.));
#528=CARTESIAN_POINT('',(-46.75,5.15,-1.26138620312177E-15));
#529=CARTESIAN_POINT('Origin',(-46.75,-5.72522378601388E-15,0.));
#530=CARTESIAN_POINT('Origin',(-47.25,4.44999999999999,0.));
#531=CARTESIAN_POINT('',(-47.25,3.74999999999999,0.));
#532=CARTESIAN_POINT('Origin',(-47.25,-5.78645612597125E-15,0.));
#533=CARTESIAN_POINT('Origin',(-42.575,-5.21393374736986E-15,0.));
#534=CARTESIAN_POINT('',(-37.9,5.15,0.));
#535=CARTESIAN_POINT('Origin',(-37.9,-4.64141136876847E-15,0.));
#536=CARTESIAN_POINT('Origin',(-0.5,-6.12323399573676E-17,0.));
#537=CARTESIAN_POINT('',(-0.37059047744874,3.943528053215,-6.16297582203915E-32));
#538=CARTESIAN_POINT('Origin',(-0.370590477448739,2.77555756156289E-16,
-4.82942900771755E-16));
#539=CARTESIAN_POINT('',(-4.23797002202821E-16,3.46056514007047,-8.47594004405642E-16));
#540=CARTESIAN_POINT('Origin',(0.,2.31111593326468E-32,0.));
#541=CARTESIAN_POINT('Origin',(-4.16333634234434E-16,3.42211431702998,0.));
#542=CARTESIAN_POINT('',(0.,3.,0.));
#543=CARTESIAN_POINT('Origin',(3.67544536472586E-16,4.50186124500516E-32,
0.));
#544=CARTESIAN_POINT('Origin',(-2.25,-2.75545529808155E-16,0.));
#545=CARTESIAN_POINT('',(-4.5,5.05,0.));
#546=CARTESIAN_POINT('Origin',(-4.5,-5.51091059616309E-16,0.));
#547=CARTESIAN_POINT('Origin',(-12.5193375672974,-1.5331766679236E-15,0.));
#548=CARTESIAN_POINT('',(-25.0386751345948,3.,0.));
#549=CARTESIAN_POINT('Origin',(-25.0386751345948,-3.0663533358472E-15,0.));
#550=CARTESIAN_POINT('Origin',(-24.8943375672974,-3.04867708186845E-15,
0.));
#551=CARTESIAN_POINT('',(-24.75,3.5,0.));
#552=CARTESIAN_POINT('Origin',(-24.75,-3.0310008278897E-15,0.));
#553=CARTESIAN_POINT('Origin',(-35.2910897725478,-4.32191201283726E-15,
0.));
#554=CARTESIAN_POINT('',(-45.8321795450956,3.49999999999999,0.));
#555=CARTESIAN_POINT('Origin',(-45.8321795450956,-5.61282319778481E-15,
0.));
#556=CARTESIAN_POINT('Origin',(-46.5410897725478,-5.69963966187803E-15,
0.));
#557=CARTESIAN_POINT('Origin',(-37.475,-4.58936387980471E-15,0.));
#558=CARTESIAN_POINT('',(-37.05,6.,0.));
#559=CARTESIAN_POINT('Origin',(-37.05,-4.53731639084095E-15,0.));
#560=CARTESIAN_POINT('Origin',(-36.5,-4.46996081688784E-15,0.));
#561=CARTESIAN_POINT('',(-35.95,6.,0.));
#562=CARTESIAN_POINT('Origin',(-35.95,-4.40260524293474E-15,0.));
#563=CARTESIAN_POINT('Origin',(-35.55,-4.35361937096884E-15,0.));
#564=CARTESIAN_POINT('',(-35.15,5.2,0.));
#565=CARTESIAN_POINT('Origin',(-35.15,-4.30463349900295E-15,0.));
#566=CARTESIAN_POINT('Origin',(-34.225,-4.19135367008182E-15,0.));
#567=CARTESIAN_POINT('',(-33.3,5.2,0.));
#568=CARTESIAN_POINT('Origin',(-33.3,-4.07807384116069E-15,0.));
#569=CARTESIAN_POINT('Origin',(-32.7948185144591,-4.01620695223507E-15,
0.));
#570=CARTESIAN_POINT('Origin',(-9.,4.775,0.));
#571=CARTESIAN_POINT('',(-9.,5.05,0.));
#572=CARTESIAN_POINT('Origin',(-9.,-1.10218211923262E-15,0.));
#573=CARTESIAN_POINT('Origin',(-7.44039749960513,-9.1118589822754E-16,0.));
#574=CARTESIAN_POINT('',(-5.88079499921027,4.5,0.));
#575=CARTESIAN_POINT('Origin',(-5.88079499921027,-7.20189677222462E-16,
0.));
#576=CARTESIAN_POINT('Origin',(-5.19039749960514,-6.35640368419386E-16,
0.));
#577=CARTESIAN_POINT('',(-4.5,4.5,0.));
#578=CARTESIAN_POINT('Origin',(-4.5,-5.51091059616309E-16,0.));
#579=CARTESIAN_POINT('Origin',(-4.5,4.775,0.));
#580=UNCERTAINTY_MEASURE_WITH_UNIT(LENGTH_MEASURE(0.01),#584,
'DISTANCE_ACCURACY_VALUE',
'Maximum model space distance between geometric entities at asserted c
onnectivities');
#581=UNCERTAINTY_MEASURE_WITH_UNIT(LENGTH_MEASURE(1.E-6),#584,
'DISTANCE_ACCURACY_VALUE',
'Maximum model space distance between geometric entities at asserted c
onnectivities');
#582=(
GEOMETRIC_REPRESENTATION_CONTEXT(3)
GLOBAL_UNCERTAINTY_ASSIGNED_CONTEXT((#580))
GLOBAL_UNIT_ASSIGNED_CONTEXT((#584,#587,#585))
REPRESENTATION_CONTEXT('','3D')
);
#583=(
GEOMETRIC_REPRESENTATION_CONTEXT(3)
GLOBAL_UNCERTAINTY_ASSIGNED_CONTEXT((#581))
GLOBAL_UNIT_ASSIGNED_CONTEXT((#584,#587,#585))
REPRESENTATION_CONTEXT('','3D')
);
#584=(
LENGTH_UNIT()
NAMED_UNIT(*)
SI_UNIT(.MILLI.,.METRE.)
);
#585=(
NAMED_UNIT(*)
SI_UNIT($,.STERADIAN.)
SOLID_ANGLE_UNIT()
);
#586=DIMENSIONAL_EXPONENTS(0.,0.,0.,0.,0.,0.,0.);
#587=(
CONVERSION_BASED_UNIT('degree',#589)
NAMED_UNIT(#586)
PLANE_ANGLE_UNIT()
);
#588=(
NAMED_UNIT(*)
PLANE_ANGLE_UNIT()
SI_UNIT($,.RADIAN.)
);
#589=PLANE_ANGLE_MEASURE_WITH_UNIT(PLANE_ANGLE_MEASURE(0.01745329252),#588);
#590=SHAPE_DEFINITION_REPRESENTATION(#591,#592);
#591=PRODUCT_DEFINITION_SHAPE('',$,#594);
#592=SHAPE_REPRESENTATION('',(#324),#582);
#593=PRODUCT_DEFINITION_CONTEXT('part definition',#598,'design');
#594=PRODUCT_DEFINITION('48SFTF09FXX','48SFTF09FXX',#595,#593);
#595=PRODUCT_DEFINITION_FORMATION('',$,#600);
#596=PRODUCT_RELATED_PRODUCT_CATEGORY('48SFTF09FXX','48SFTF09FXX',(#600));
#597=APPLICATION_PROTOCOL_DEFINITION('international standard',
'automotive_design',2009,#598);
#598=APPLICATION_CONTEXT(
'Core Data for Automotive Mechanical Design Process');
#599=PRODUCT_CONTEXT('part definition',#598,'mechanical');
#600=PRODUCT('48SFTF09FXX','48SFTF09FXX',$,(#599));
#601=PRESENTATION_STYLE_ASSIGNMENT((#602));
#602=SURFACE_STYLE_USAGE(.BOTH.,#603);
#603=SURFACE_SIDE_STYLE('',(#604));
#604=SURFACE_STYLE_FILL_AREA(#605);
#605=FILL_AREA_STYLE('',(#606));
#606=FILL_AREA_STYLE_COLOUR('',#607);
#607=COLOUR_RGB('',1.,1.,1.);
ENDSEC;
END-ISO-10303-21;
